Black Sabbath

home > Black Sabbath

NIB Tab

Black Sabbath

Difficulty: ExpertExpert

by caio%5Fkill

tuner correct add songbook print version text version save to e-mail
chordsukulelecavacokeyboardtabbassdrummharmonicsflute Guitar Pro
chords

NIB

Year: 1990 - Album: Greatest Hits 1970-1978

  		Riff:1(main riff)
Eb|------------------------------------------------------------------
Bb|------------------------------------------------------------------
Gb|---9--9--7--9---12--11----9--9--7--9------------------------------
Db|---9--9--7--9---12--11----9--9--7--9------------------------------
Ab|---7--7--5--7---10--9-----7--7--5--7------------------------------                    
Eb|------------------------------------------------------------------

riff:2a                        riff:2b
Eb|--12---12---------          --------------------------------------
Bb|--15B--15B--------          --------------------------------------
Gb|------------------          --------------------------------------
Db|------------------          ----------5(let ring)-----------------
Ab|------------------          -------5h7----------------------------                    
Eb|------------------          ----5h7-------------------------------

riff:3
Eb|------------------------------------------------------------------
Bb|------------------------------------------------------------------
Gb|--9------9-7------7-5------5-4------4-9------9-7------7-5------5-4
Db|--9------9-7------7-5------5-4------4-9------9-7------7-5------5-4
Ab|--7------7-5------5-3------3-2------2-7------7-5------5-3------3-2                    
Eb|------------------------------------------------------------------


Eb|------------------------------------------------------------------
Bb|------------------------------------------------------------------
Gb|-4\5-----5/4------4\5------5/4------------------------------------
Db|-4\5-----5/4------4\5------5/4------------------------------------
Ab|-2\3-----3/2------2\3------3/2------------------------------------                    
Eb|------------------------------------------------------------------

riff:4
Eb|------------------------------------------------------------------
Bb|------------------------------------------------------------------
Gb|------------------------------------------------------------------
Db|-------5----7--7p5------------------------------------------------
Ab|--5h7---------------7--7------------------------------------------                    
Eb|------------------------------------------------------------------

riff:5
Eb|--7-----7-----7-----
Bb|--10B---10B---10B---
Gb|--------------------
Db|--------------------
Ab|--------------------                    
Eb|--------------------

	  

Search Paypal
auto scroll beats size up size down change color hide chords drawings
tab show chords e-chords YouTube Clip e-chords hide all tabs e-chords go to top tab