Iron Maiden

home > Iron Maiden

Iron Maiden Tab

Iron Maiden

Difficulty: AdvancedAdvanced

by ALMA%5FDE%5FGATO

tuner correct add songbook print version text version save to e-mail
chordsukulelecavacokeyboardtabbassdrummharmonicsflute Guitar Pro
chords

Iron Maiden

Year: 1980 - Album: Death on the Road

(Steve Harris)

  		
Intro: (Riff 1) 

Guitar 1: 
e|-------------------------| 
B|-------------5-----------| 
G|-2-2-0h2p0-----5-----4---| 
D|-----------2-------7---5-| 
A|-------------------------| 
E|-------------------------| 

Guitar 2: 
e|-----------------------| 
B|-----------------------| 
G|-5-5-4h5p4-------------| 
D|-----------7-5-4---4---| 
A|-----------------7---5-| 
E|-----------------------| 

e|-----------------------| 
B|-----------------------| 
G|2/5-5-4h5p4------------| 
D|------------7-5-4---4--| 
A|------------------7---5| 
E|-----------------------| 

A5 
Won't you come into my room, 
G5 
I wanna show you all my wares. 
A5 
I just want to see your blood, 
G5 
I just want to stand and stare. 
A5 
See the blood begin to flow 
G5 
As it falls upon the floor. 
A5 
Iron Maiden can't be fought 
G5 
Iron Maiden can't be sought. 

Intro: (Riff 1) 

Chorus Riff: 

e|--------------------------------------| 
B|----------------------------5---8-----| 
G|----------------------------7b9-10b12-| 
D|-5-5-5-x--5-5-5-x--7-7-7-x------------| 
A|-3-3-3-x--5-5-5-x--5-5-5-x------------| 
E|----------3-3-3-x---------------------| 

e|--------------------------------------------| 
B|----------------------------5---8-----10----| 
G|----------------------------7b9-10b12-12b14-| 
D|-5-5-5-x--5-5-5-x--7-7-7-x------------------| 
A|-3-3-3-x--5-5-5-x--5-5-5-x------------------| 
E|----------3-3-3-x---------------------------| 

e|--------------------------------------| 
B|----------------------------5---8-----| 
G|----------------------------7b9-10b12-| 
D|-5-5-5-x--5-5-5-x--7-7-7-x------------| 
A|-3-3-3-x--5-5-5-x--5-5-5-x------------| 
E|----------3-3-3-x---------------------| 

e|------------------------------| 
B|------------------------------| 
G|------------------------------| 
D|-5-5-5-x--5-5-5-x--7-7-7-x--7-| 
A|-3-3-3-x--5-5-5-x--5-5-5-x--7-| 
E|----------3-3-3-x-----------5-| 

C5       G5 
Oh Well, wherever, 
D5           A5 
Wherever you are, 
C5            G5       
Iron Maiden's gonna get you, 
D5            A5 
No matter how far. 
C5                 G5 
See the blood flow watching it shed 
D5            A5 
Up above my head. 
C5          G5        D5    A5 
Iron Maiden wants you for dead. 

Intro: (Riff 1) 

A5 
Won't you come into my room, 
G5 
I wanna show you all my wares. 
A5 
I just want to see your blood, 
G5 
I just want to stand and stare. 
A5 
See the blood begin to flow 
G5 
As it falls upon the floor. 
A5 
Iron Maiden can't be fought 
G5 
Iron Maiden can't be sought. 

C5       G5 
Oh Well, wherever, 
D5           A5 
Wherever you are, 
C5            G5       
Iron Maiden's gonna get you, 
D5            A5 
No matter how far. 
C5                 G5 
See the blood flow watching it shed 
D5            A5 
Up above my head. 
C5          G5        D5    A5 
Iron Maiden wants you for dead. 

Solol: Riff 2 (D5 C5) 

Guitar 1: 

e|-------------------------| 
B|----------------------0--| 
G|------------------0-2----| 
D|------0-2-3-0-2-3--------| 
A|0-2-3--------------------| 
E|-------------------------| 

Guitar 2: 

e|-0------------------------| 
B|---3-1--0-1---------0-1-3-| 
G|------------2---0-2-------| 
D|--------------3-----------| 
A|--------------------------| 
E|--------------------------| (3x) 

e|-0---------------------------| 
B|---3-1-0-1---------0-1-3-3b5-| 
G|-----------2---0-2-----------| 
D|-------------3---------------| 
A|-----------------------------| 
E|-----------------------------| 

Intro: (Riff 1) 



A5 
Won't you come into my room, 
G5 
I wanna show you all my wares. 
A5 
I just want to see your blood, 
G5 
I just want to stand and stare. 
A5 
See the blood begin to flow 
G5 
As it falls upon the floor. 
A5 
Iron Maiden can't be fought 
G5 
Iron Maiden can't be sought.. 

C5       G5 
Oh Well, wherever, 
D5           A5 
Wherever you are, 
C5            G5       
Iron Maiden's gonna get you, 
D5            A5 
No matter how far. 
C5                 G5 
See the blood flow watching it shed 
D5            A5 
Up above my head. 
C5          G5        D5    A5 
Iron Maiden wants you for dead. 

	  

Full key step upFull key step up
Half key step upHalf key step up
Half key step downHalf key step down
Full key step downFull key step down
Search Paypal
auto scroll beats size up size down change color hide chords drawings
tab show chords e-chords YouTube Clip e-chords hide all tabs e-chords go to top tab