Iron Maiden

home > Iron Maiden

For The Greater Good Of God Tab

Iron Maiden

Difficulty: IntermediateIntermediate

by tarikike

tuner correct add songbook print version text version save to e-mail
chordsukulelecavacokeyboardtabbassdrumsharmonicsflute Guitar Pro
chords

For The Greater Good Of God

Year: 2006 - Album: A Matter Of Life And Death

  		

 
E|------------------------------------------------------------------------------------------| 
B|------------------------------------------------------------------------------------------| 
G|--------------------7/9----------------------5/7--------------------7/9-------------------| 
D|------------------------------------------------------------------------------------------| 
A|-------------7------5/7-------------------7--3/5----------------7---5/7-------------------| 
E|---0----5h7---------------------0----5h7---------------0--5h7-----------------------------| 


 
E|------------------------------------------------------------------------------------------| 
B|----------------8/10----------------------------------------------------------------------| 
G|------------------------------------------------------------------------------------------| 
D|----------------5/7-----------5-4--------5-4----------5-4-------7-4-5---------------------| 
A|------------7----------------------7----------7------------7------------------------------| 
E|----0--5h7---------------0-------------0-----------0--------------------------------------| 


 
E|------------------------------------------------------------------------------------------| 
B|------------------------------------------------------------------------------------------| 
G|------------------------------------------------------------------------------------------| 
D|-----5-4---------5-4-------------5-4--------5---------------------------------------------| 
A|----------7------------7--------------7--------5/7----------------------------------------| 
E|--0------------0--------------0-----------------------------------------------------------| 


'Are you a man of peace.....' 

 
E|------------------------------------------------------------------------------------------| 
B|------------------------------------------------------------------------------------------| 
G|--------9-----9-----------5------5------------------------------7----7--------------------| 
D|-----9-----9-----------5-----5--------------5-----5----------7----7-----------------------| 
A|--7----------------3---------------------5-----5----------5-------------------------------| 
E|--------------------------------------3---------------------------------------------------| 


Distorted verse (typical maiden strumming affair) 

 
E|------------------------------------------------------------------------------------------| 
B|------------------------------------------------------------------------------------------| 
G|--9-------5-----------7-------------------------------------------------------------------| 
D|--9-------5-----5-----7-------------------------------------------------------------------| 
A|--7-------3-----5-----5-------------------------------------------------------------------| 
E|----------------3-------------------------------------------------------------------------| 


'tell me why, tell me why' 

 
E|------------------------------------------------------------------------------------------| 
B|------------------------------------------------------------------------------------------| 
G|---2-----5-----7--------------------------------------------------------------------------| 
D|---2-----5-----7--------------------------------------------------------------------------| 
A|---0-----3-----5--------------------------------------------------------------------------| 
E|------------------------------------------------------------------------------------------| 


'Please tell me..' 

 
E|------------------------------------------------------------------------------------------| 
B|------------------------------------------------------------------------------------------| 
G|------4--5-----4--------------------------------------------------------------------------| 
D|------------7-----5--7----4-4-4-5-5-5p4---------------------------------------------------| 
A|---7-------------------------------------5------------------------------------------------| 
E|------------------------------------------------------------------------------------------| 


Chorus bit ' For the greater good of god!' 
 
E|------------------------------------------------------------------------------------------| 
B|------------------------------------------------------------------------------------------| 
G|------4--------------------------------------4-5--4----4----------------------------------| 
D|--------7-5-4---------------------4-5-4-5-7---------7-----7-5-4---------------------------| 
A|--7-------------7--5----7--5--7-----------------------------------------------------------| 
E|------------------------------------------------------------------------------------------| 


Interlude (same as intro bit) 

 
E|------------------------------------------------------------------------------------------| 
B|------------------------------------------------------------------------------------------| 
G|------------------------------------------------------------------------------------------| 
D|---------------------------5-4----------5-4----------5-4-------7-4-5----------------------| 
A|------------------------------------7----------7------------7-----------------------------| 
E|-------------------0-------------0-----------0--------------------------------------------| 


 
E|------------------------------------------------------------------------------------------| 
B|------------------------------------------------------------------------------------------| 
G|------------------------------------------------------------------------------------------| 
D|-----5-4---------5-4-------------5-4--------5---------------------------------------------| 
A|----------7------------7--------------7--------5/7----------------------------------------| 
E|--0------------0--------------0-----------------------------------------------------------| 


 
E|------------------------------------------------------------------------------------------| 
B|------------------------------------------------------------------------------------------| 
G|------------------------------------------------------------------------------------------| 
D|----12h14-14-14--12h14-14-14--12h14-14-14--12h14-14-14--12h14-14-14--12h14-14-14----------| 
A|------------------------------------------------------------------------------------------| 
E|------------------------------------------------------------------------------------------| 


 
E|------------------------------------------------------------------------------------------| 
B|------------------------------------------------------------------------------------------| 
G|------------------------------------------------------------------------------------------| 
D|---12h14p12-11-----------12h14p12-11------------------------------------------------------| 
A|----------------14--12-----------------14--12---------------------------------------------| 
E|------------------------------------------------------------------------------------------| 


 
E|------------------------------------------------------------------------------------------| 
B|------------------------------------------------------------------------------------------| 
G|------------------------------------------------------------------------------------------| 
D|------------------------------------------------------------------------------------------| 
A|------------------------------------------------------------------------------------------| 
E|--7-8-7-0-0--7--5-0--0-0-5-3-0-0-0-3-02--0-0----------------------------------------------| 


 
E|----------------| 
B|----------------| 
G|-4---5----------| 
D|-4---5---5---7--| 
A|-2---3---5---7--| 
E|---------3---5--| 


Harmony part 

 
E|------------------------| 
B|------------------------| 
G|----------4-------------| 
D|----5--7----------------| 
A|--------------7-7--5--7-| 
E|------------------------|  Repeat 


 
E|----------------------------------------------------| 
B|----------------------------------------------------| 
G|---------------4------------------------------------| 
D|-------5--7------------------------5-4--------------| 
A|------------------------7-7-5-7----------7----------| 
E|----------------------------------------------------| 


 
	  

Search Paypal
auto scroll beats size up size down change color hide chords drawings
tab show chords e-chords YouTube Clip e-chords hide all tabs e-chords go to top tab