Iron Maiden

home > Iron Maiden

Innocent Exile Tab

Iron Maiden

Difficulty: ExpertExpert

tuner correct add songbook print version text version save to e-mail
chordsukulelecavacokeyboardtabbassdrummharmonicsflute Guitar Pro
chords

Innocent Exile

Year: 1981 - Album: Killers

  		 
This is the intro bass riff: 
                                                                         
G------2-----------------|-----2--------4-----4-----|------------------- 
D---0--------0-----------|--0--------4-----4-----4--|------------------- 
A---------------3-----3--|--------------------------|------------------- 
E------------------3-----|--------------------------|------------------- 
 
Then the guitars play (play twice, but on the repeat, guitar 1's last  
bar is a bend on the 20th fret, not the 18th): 
 
     guitar 1 
/ E-----------|------------|--------------------|------------|---------- 
| B---15--13--|--15--------|--15--------13--12--|--13--------|---------- 
| G-----------|------------|--------------------|------------|---------- 
| D-----------|------------|--------------------|------------|---------- 
| A-----------|------------|--------------------|------------|---------- 
| E-----------|------------|--------------------|------------|---------- 
|    guitar 2 
| E-----------|------------|--------------------|------------|---------- 
| B-----------|------------|--------------------|------------|---------- 
| G---7---7---|--7---------|--7---------5---5---|--5---------|---------- 
| D---7---7---|--7---------|--7---------5---5---|--5---------|---------- 
| A---5---5---|--5---------|--5---------3---3---|--3---------|---------- 
 E-----------|------------|--------------------|------------|---------- 
                                                                         
 
/ E---------------------|------------|--------------------|------------- 
| B---13--------15--13--|--15--------|--15--------18--17--|--18--------- 
| G---------------------|------------|--------------------|------------- 
| D---------------------|------------|--------------------|------------- 
| A---------------------|------------|--------------------|------------- 
| E---------------------|------------|--------------------|------------- 
|                                                                        
| E---------------------|------------|--------------------|------------- 
| B---------------------|------------|--------------------|------------- 
| G---5---------7---7---|--7---------|--7---------10--10--|--10--------- 
| D---5---------7---7---|--7---------|--7---------10--10--|--10--------- 
| A---3---------5---5---|--5---------|--5---------8---8---|--8---------- 
 E---------------------|------------|--------------------|------------- 
                                                                         
 
/ E-------------|------------------------------------------------------- 
| B---18^-------|------------------------------------------------------- 
| G-------------|------------------------------------------------------- 
| D-------------|------------------------------------------------------- 
| A-------------|------------------------------------------------------- 
| E-------------|------------------------------------------------------- 
|                                                                        
| E-------------|------------------------------------------------------- 
| B-------------|------------------------------------------------------- 
| G---10--------|------------------------------------------------------- 
| D---10--------|------------------------------------------------------- 
| A---8---------|------------------------------------------------------- 
 E-------------|------------------------------------------------------- 
 
Then the first verse starts. This is the verse riff (both guitars, play 
twice): 
 
E---------------------------|--------------------------|---------------- 
B---------------------------|--------------------------|---------------- 
G---------------------------|--------------------------|---------------- 
D---------------3-----------|--------3-----------------|---------------- 
A---5--5-----5--------5--5--|-----5-----5--5--0--3--4--|---------------- 
E---------------------------|--------------------------|---------------- 
  
E---------------------------|--------------------------|---------------- 
B---------------------------|--------------------------|---------------- 
G---------------------------|--------------------------|---------------- 
D---------------3-----------|--------3-----5--3--------|---------------- 
A---5--5-----5--------5--5--|-----5-----5--------5--0--|---------------- 
E---------------------------|--------------------------|---------------- 
  
E---------------------------|--------------------------|---------------- 
B---------------------------|--------------------------|---------------- 
G---------------------------|--------------------------|---------------- 
D---------------------------|--------------------------|---------------- 
A---3--3-----3--6-----3--3--|-----3--6--3--3--0--1--2--|---------------- 
E---------------------------|--------------------------|---------------- 
  
E---------------------------|--------------------------|---------------- 
B---------------------------|--------------------------|---------------- 
G---------------------------|--------------------------|---------------- 
D---------------------------|--------------------------|---------------- 
A---3--3-----3--6-----3--3--|-----3--6--3--3--0--4--0--|---------------- 
E---------------------------|--------------------------|---------------- 
 
Then there is a little interlude. This is guitar 1's part: 
 
E------------------------|-----------------------|---------------------- 
B---6-----------------6--|--8-----------------8--|---------------------- 
G------------7-----------|-----------7-----------|---------------------- 
D------------------------|-----------------------|---------------------- 
A------------------------|-----------------------|---------------------- 
E------------------------|-----------------------|---------------------- 
  
E---5-----------------5--|--6--------5-----------|---------------------- 
B------------------------|--------------------8--|---------------------- 
G------------7-----------|-----------------------|---------------------- 
D------------------------|-----------------------|---------------------- 
A------------------------|-----------------------|---------------------- 
E------------------------|-----------------------|---------------------- 
  
E---6-----------------6--|--5-----------------5--|---------------------- 
B------------------------|-----------------------|---------------------- 
G------------7-----------|-----------7-----------|---------------------- 
D------------------------|-----------------------|---------------------- 
A------------------------|-----------------------|---------------------- 
E------------------------|-----------------------|---------------------- 
  
E------------------------|-----|---------------------------------------- 
B---8-----------------6--|--5--|---------------------------------------- 
G------------7-----------|-----|---------------------------------------- 
D------------------------|-----|---------------------------------------- 
A------------------------|-----|---------------------------------------- 
E------------------------|-----|---------------------------------------- 
 
This is guitar 2's part (play twice): 
 
E------------------|-----------------|-----------------|---------------- 
B------------------|--5-----------5--|--6-----------6--|---------------- 
G---7-----------7--|--------7--------|--------7--------|---------------- 
D---------7--------|-----------------|-----------------|---------------- 
A------------------|-----------------|-----------------|---------------- 
E------------------|-----------------|-----------------|---------------- 
 
E------------------|---------------------------------------------------- 
B---8-----6-----5--|---------------------------------------------------- 
G------------------|---------------------------------------------------- 
D------------------|---------------------------------------------------- 
A------------------|---------------------------------------------------- 
E------------------|---------------------------------------------------- 
 
Then play the verse riff again. Play that harmonic interlude again, then 
play this: 
                                                                         
E---||---------------------|-----------------------|-------------------- 
B---||---------------------|-----------------------|-------------------- 
G---||*--------------------|-----------------------|-------------------- 
D---||*--------------------|-----------------------|-------------------- 
A---||---0--------3--0-----|--------3--------------|-------------------- 
E---||---------------------|--3--5-----------5-----|-------------------- 
  
                                               6x                        
E------------------------|---------------------||-----------|----------- 
B------------------------|---------------------||-----------|----------- 
G------------------------|--7-----7-----7--5--*||--9--------|----------- 
D------------------------|--7-----7-----7--5--*||--9--------|----------- 
A---------3--------------|--5-----5-----5--3---||--7--------|----------- 
E---3--5-----------5-----|---------------------||-----------|----------- 
 
Then go all the way back to the beginning and play the intro. Now play  
this (with a triplet feel): 
 
                                           8x                            
E---||-------------------------------------||--------------------------- 
B---||-------------------------------------||--------------------------- 
G---||*-----------------------------------*||--------------------------- 
D---||*-----------4-----------------------*||--------------------------- 
A---||---5-----5--------5-----0--3-----4---||--------------------------- 
E---||-------------------------------------||--------------------------- 
 
Guitar 1 keeps playing that under the first solo (play 16 times), while  
the other plays the solo. Then Guitar 2 plays that (16 times) while  
guitar 1 plays a solo. See bottom of tab for solos. After the solos,  
both guitars play that again (8 times). Then they play this: 
 
E---||--------------------------|-------------------------|------------- 
B---||--------------------------|-------------------------|------------- 
G---||*-------------------------|-------------------------|------------- 
D---||*-7---x-x-x-x-7---x-x-x-x-|-5---x-x-x-x-5---x-x-x-x-|------------- 
A---||--5---x-x-x-x-5---x-x-x-x-|-3---x-x-x-x-3---x-x-x-x-|------------- 
E---||--------------------------|-------------------------|------------- 
  
E---------------------------|----------------------||------------------- 
B---------------------------|----------------------||------------------- 
G---------------------------|---------------------*||------------------- 
D---3---x-x-x-x-3---x-x-x-x-|-2---x-x-x-x-3---5---*||------------------- 
A---1---x-x-x-x-1---x-x-x-x-|-0---x-x-x-x-1---3----||------------------- 
E---------------------------|----------------------||------------------- 
 
Now play this: 
 
E-----------------|---------------|---------------|-----------------|--- 
B-----------------|---------------|---------------|-----------------|--- 
G-----------------|---------------|---------------|-----------------|--- 
D---7-7-7-7-7-----|-5-5-5-5-5-----|-3-3-3-3-3-----|-2-2---2---2-2---|--- 
A---5-5-5-5-5-----|-3-3-3-3-3-----|-1-1-1-1-1-----|-0-0---0---0-0---|--- 
E-----------------|---------------|---------------|-----------------|--- 
   
E-----------------|---------------|---------------|---------|----------- 
B-----------------|---------------|---------------|---------|----------- 
G-----------------|---------------|---------------|---------|----------- 
D---7-7-7-7-7-----|-5-5-5-5-5-----|-3-3-3-3-3-----|-2-3-2-3-|----------- 
A---5-5-5-5-5-----|-3-3-3-3-3-----|-1-1-1-1-1-----|-0-1-0-1-|----------- 
E-----------------|---------------|---------------|---------|----------- 
  
              trem pick 
E-----------|-------|--------------------------------------------------- 
B-----------|-------|--------------------------------------------------- 
G-----------|-7-----|--------------------------------------------------- 
D---2-------|-7-----|--------------------------------------------------- 
A---0-5-3-2-|-5-----|--------------------------------------------------- 
E-----3-1-0-|-------|--------------------------------------------------- 
 
Here's the first solo: 
 
    dive and return w/bar............ 
E-------------------------------------|-------------------------|------- 
B-------------------------------------|--13---------------------|------- 
G-------------------------------------|--12^--(12)--10--12--10--|------- 
D---10h12p10h12p10h12p10h12p10h12p10--|-------------------------|------- 
A-------------------------------------|-------------------------|------- 
E-------------------------------------|-------------------------|------- 
 
E----------------------------|--13^--13^-----13^--|--------------------- 
B---13^--13^--10--13p10------|--------------------|--------------------- 
G------------------------12--|--------------------|--------------------- 
D----------------------------|--------------------|--------------------- 
A----------------------------|--------------------|--------------------- 
E----------------------------|--------------------|--------------------- 
   
E---10--10--10h13p10------10--10--10h13p10------|----------------------- 
B---------------------13--------------------13--|----------------------- 
G-----------------------------------------------|----------------------- 
D-----------------------------------------------|----------------------- 
A-----------------------------------------------|----------------------- 
E-----------------------------------------------|----------------------- 
  
E---10--10--10h13p10------10--10--10h13p10------|----------------------- 
B---------------------13--------------------13--|----------------------- 
G-----------------------------------------------|----------------------- 
D-----------------------------------------------|----------------------- 
A-----------------------------------------------|----------------------- 
E-----------------------------------------------|----------------------- 
  
E---10--10--10h13p10------------------------------------------|--------- 
B---------------------13--10h13p10------10--10h13p10------10--|--------- 
G-----------------------------------12----------------12------|--------- 
D-------------------------------------------------------------|--------- 
A-------------------------------------------------------------|--------- 
E-------------------------------------------------------------|--------- 
 
E----------------------|--10^--10^--10^--8--10p8--7--|------------------ 
B----------------------|-----------------------------|------------------ 
G---12^--10h12--10-----|-----------------------------|------------------ 
D----------------------|-----------------------------|------------------ 
A----------------------|-----------------------------|------------------ 
E----------------------|-----------------------------|------------------ 
 
E---8p7------7-----------------|---------------------------------------- 
B--------10-----10--8----------|---------------------------------------- 
G----------------------10^-----|---------------------------------------- 
D------------------------------|---------------------------------------- 
A------------------------------|---------------------------------------- 
E------------------------------|---------------------------------------- 
  
E---------------------------------------------------|------------------- 
B---------------------------------------10------10--|------------------- 
G---------------10------10--12--10--12------12------|------------------- 
D---12--10--12------12------------------------------|------------------- 
A---------------------------------------------------|------------------- 
E---------------------------------------------------|------------------- 
  
E---------------10------10--13/15--15^--|--(15)--|--20^--|-------------- 
B---13--10--13------13------------------|--------|-------|-------------- 
G---------------------------------------|--------|-------|-------------- 
D---------------------------------------|--------|-------|-------------- 
A---------------------------------------|--------|-------|-------------- 
E---------------------------------------|--------|-------|-------------- 
 
Here's the second solo: 
 
E--------------------------|------------------|------------------------- 
B--------------------------|--------------10--|------------------------- 
G---12^--(12)--10--12--10--|--(10)------------|------------------------- 
D--------------------------|------------------|------------------------- 
A--------------------------|------------------|------------------------- 
E--------------------------|------------------|------------------------- 
 
    hold bend............. bend...release...bend...release  
E------------------------------------------------------------10--|------ 
B---13^--(13)--(13)--(13)--(13)^--(13)^--(13)^--(13)^--(13)------|------ 
G----------------------------------------------------------------|------ 
D----------------------------------------------------------------|------ 
A----------------------------------------------------------------|------ 
E----------------------------------------------------------------|------ 
 
E---13p10--12p10------10--13p10--12p10------10--|----------------------- 
B-----------------13--------------------13------|----------------------- 
G-----------------------------------------------|----------------------- 
D-----------------------------------------------|----------------------- 
A-----------------------------------------------|----------------------- 
E-----------------------------------------------|----------------------- 
  
E---13p10--12p10------10-----------------|------------------------------ 
B-----------------13------13^--(13)--10--|------------------------------ 
G----------------------------------------|------------------------------ 
D----------------------------------------|------------------------------ 
A----------------------------------------|------------------------------ 
E----------------------------------------|------------------------------ 
  
E------------------------------------------------|---------------------- 
B---13p10------14p10-----------------------------|---------------------- 
G----------12---------12^--(12)--10------10--12--|---------------------- 
D------------------------------------12----------|---------------------- 
A------------------------------------------------|---------------------- 
E------------------------------------------------|---------------------- 
  
E---------------------------|----------------------------------|-------- 
B---------------------------|------8h9h10p9p8------8h9h10p9p8--|-------- 
G---------------------------|--10--------------10--------------|-------- 
D---12p10-------------------|----------------------------------|-------- 
A----------12--10--8--------|----------------------------------|-------- 
E---------------------------|----------------------------------|-------- 
 
E----------------------------------------------------|------------------ 
B-------8h9h10p9p8-----------------------------------|------------------ 
G---10--------------10^--(10)--10^--(10)--10^--(10)--|------------------ 
D----------------------------------------------------|------------------ 
A----------------------------------------------------|------------------ 
E----------------------------------------------------|------------------ 
 
E-------------------------------------|------------------18^--|--------- 
B-------------------------------------|--18^--18^-------------|--------- 
G-------------------------------------|-----------------------|--------- 
D---12p10-----------------------------|-----------------------|--------- 
A----------12--10--8--10p8------------|-----------------------|--------- 
E---------------------------10--------|-----------------------|--------- 
  
E---18^--------|--20^--------|------------------------------------------ 
B--------------|-------------|------------------------------------------ 
G--------------|-------------|------------------------------------------ 
D--------------|-------------|------------------------------------------ 
A--------------|-------------|------------------------------------------ 
E--------------|-------------|------------------------------------------ 
 
 
======================================================================== 
==                       TABLATURE EXPLANATION                        == 
======================================================================== 
 
----------                ----------                ----t--- 
----5h8--- Hammeron       ----(8)--- Ghost          ----6--- Tap 
----------                ---------- Note           -------- 
----5p8--- Pulloff        ----------                -------- 
 
----------                ----------                -----p-- 
----5/8--- Slide Up       -----x---- Dead           -----7-- Pop 
----------                ---------- Note           --s----- 
----58--- Slide Down     ----------                --5----- Slap  
 
----------                ||------|| Repeat         -------- 
----5~~~-- Vibrato        ||*----*||                ---5^--- Bend 
----------                ||*----*||                -------- 
----------                ||------||                -------- 
 
----------                ----------                -------- 
-4:------- Time           ----------                -------- 
-4:------- Signature      ----------                -------- 
----------                ----------                -------- 
 
 
 
_______________________________________________________ 
Contribuição: Fernando Mantovanele([email protected]) 

	  

Search Paypal
auto scroll beats size up size down change color hide chords drawings
tab show chords e-chords YouTube Clip e-chords hide all tabs e-chords go to top tab