Iron Maiden

home > Iron Maiden

Running Free (ver. 2) Tab

Iron Maiden

Difficulty: nolevelnolevel

by wickedman

tuner correct add songbook print version text version save to e-mail
chordsukulelecavacokeyboardtabbassdrumsharmonicsflute Guitar Pro
chords

Running Free (ver. 2)

  		Introdução 
 
Optei por colocar o baixo da introdução, porque esse riff é clássico! 
 
||------------------|------------------|------------------|-------------------| 
||------------------|------------------|------------------|--------------5/---| 
||------------------|------------------|------------------|-------------------| 
||------------------|------------------|------------------|-------------------| 
 
 
|------------------------------------|---------------------------|------------------------------------|----------------------| 
|------------------------------------|---------------------------|------------------------------------|----------------------| 
|------------------------------------|---------------------------|------------------------------------|-3--3--3----5--5--5--5| 
|--0----0---0----0---0----0---0----0-|-0----0---0----3-----5--5--|--0----0---0----0---0----0---0----0-|----------------------| 
  
 
|------------------------------------|---------------------------|------------------------------------|-------5----------7---| 
|------------------------------------|---------------------------|------------------------------------|----------------------| 
|------------------------------------|---------------------------|------------------------------------|-3--3-------5--5------| 
|--0----0---0----0---0----0---0----0-|-0----0---0----3-----5--5--|--0----0---0----0---0----0---0----0-|----------------------| 
 
 
Após a introdução do baixo, vem a parte a seguir 
 
     E5                   G5      F#5      E5                C5            D5 
||-----------------|--------------------|-----------------|-------------------------------|| 
||o----------------|--------------------|-----------------|------------------------------o|| 
||---9-------------|------12------11----|--9-----------x--|--5----x--x--x--7----x--x--x---|| 
||---9-------------|------12------11----|--9-----------x--|--5----x--x--x--7----x--x--x---|| 
||o--7-------------|------10------9-----|--7-----------x--|--3----x--x--x--5----x--x--x--o|| 
||-----------------|--------------------|-----------------|-------------------------------|| 
 
 
Riff 1 
 
   E5                             C5            D5               E5                             G5            A5 
|------------------------------|------------------------------|------------------------------|------------------------------| 
|------------------------------|------------------------------|------------------------------|------------------------------| 
|--9----x--x--x--9----x--x--x--|--5----x--x--x--7----x--x--x--|--9----x--x--x--9----x--x--x--|-------x--x--x-------x--x--x--| 
|--9----x--x--x--9----x--x--x--|--5----x--x--x--7----x--x--x--|--9----x--x--x--9----x--x--x--|--5----x--x--x--7----x--x--x--| 
|--7----x--x--x--7----x--x--x--|--3----x--x--x--5----x--x--x--|--7----x--x--x--7----x--x--x--|--5----x--x--x--7----x--x--x--| 
|------------------------------|------------------------------|------------------------------|--3-------------5-------------| 
 
 
Verso 1 sobre riff 1 
 
E5              C5     D5 
Just sixteen, a pickup truck, 
E5            G5     A5 
Out of money, out of luck  
E5                  C5      D5 
I've got nowhere to call my own, 
E5           G5     A5 
Hit the gas, here I go. 
 
 
Refrão 
 
   E5             G5           E5     D5 E5                              C5            D5 
||----------------------|--------------------|-------------------------|-------------------------------|| 
||o---------------------|--------------------|-------------------------|------------------------------o|| 
||---9--------------12--|-------9------7--9--|------x--9------x--x--x--|--5----x--x--x--7----x--x--x---|| 
||---9--------------12--|-------9------7--9--|------x--9------x--x--x--|--5----x--x--x--7----x--x--x---|| 
||o--7--------------10--|-------7------5--7--|------x--7------x--x--x--|--3----x--x--x--5----x--x--x--o|| 
||----------------------|--------------------|-------------------------|-------------------------------|| 
       I'm running free        yeah,              I'm running            free 
 
                               
Verso 2 sobre riff 1 
 
E5                    C5 D5 
Spent the night in an LA jail, 
    E5              G5     A5 
And listened to the sirens wail 
E5               C5       D5 
They ain't got a thing on me, 
    E5 
I'm running wild, 
    G5      A5 
I'm running free 
 
 
 
Repete Refrão 
 
 
 
Solo 
 
||----9----------------------------------------------------------------|| 
||o-----12-10-12-10----10---------------------------------------------o|| 
||------------------12----12-11-12-11-9-11-9----9----------------------|| 
||-------------------------------------------12---12-11-12-11-9--------|| 
||o-------------------------------------------------------------12----o|| 
||---------------------------------------------------------------------|| 
 
 
||----17-15-14-15-14----14-------------------------------------------------|| 
||o------------------17----17-15-17-15-14-15-14----14---------------------o|| 
||----------------------------------------------16----16-14-16-14----------|| 
||----------------------------------------------------------------17-16----|| 
||o-----------------------------------------------------------------------o|| 
||-------------------------------------------------------------------------|| 
 
 
|-------------------------------------------------------------------| 
|-------------------------------------------------------------------| 
|-16-14----------16-14------------16-14-----16-14-----16-14---------| 
|-------17-16----------17-16------------17--------17--------17-16---| 
|-------------------------------------------------------------------| 
|-------------------------------------------------------------------| 
 
 
                       E5                                                                                        (x3) 
||-------------------------|------------------------|------------------------|------------------------------------|| 
||o------------------------|------------------------|------------------------|-----------------------------12/---o|| 
||---------------------9---|--------------------9---|--------------------9---|--12-12-12-11-12-11-----------------|| 
||---------------------9---|--------------------9---|--------------------9---|--------------------12-12-12--------|| 
||o--------------------7---|--------------------7---|--------------------7---|-----------------------------------o|| 
||---0--0--0--0--0--0--0---|--0--0--0--0--0--0--0---|--0--0--0--0--0--0--0---|------------------------------------|| 
 
 
                                                            C5  D5 
|------------------------|------------------------|-----------------| 
|------------------------|------------------------|-----------------| 
|--------------------9---|--------------------9---|-----------------| 
|--------------------9---|--------------------9---|---------5---7---| 
|--------------------7---|--------------------7---|---------3---5---| 
|--0--0--0--0--0--0--0---|--0--0--0--0--0--0--0---|-0--0--0---------| 
 
 
 
Repete Refrão 
 
 
 
Interlúdio 
 
    E5       D5  E5       D5  E5          C5      D5 
||-------------|------------|-----------|-------------------|| 
||o------------|------------|-----------|------------------o|| 
||-------------|------------|-----------|-------------------|| 
||--9-9------7s|=9-9------7s|=9-9-------|-5-5-5-5-7-7-7-7---|| 
||o-7-7------5s|=7-7------5s|=7-7-------|-3-3-3-3-5-5-5-5--o|| 
||-------------|------------|-----------|-------------------|| 
 
                                                                           1.                  2. 
     E5                  D5  E5                  D5  E5                     C5      D5          C5     D5 
||-------------------------|-----------------------|----------------------|------------------||----------------|| 
||o-------10-12-10----10---|------10-12-10----10---|------10-12-10----10--|-----------------o||----------------|| 
||-----------------12------|---------------12------|---------------12-----|------------------||----------------|| 
||---9-9-----------------7s|=9-9-----------------7s|-9-9------------------|-5-5-5-5-7-7-7-7--||-5-5-5--7-7-7---|| 
||o--7-7-----------------5s|=7-7-----------------5s|-7-7------------------|-3-3-3-3-5-5-5-5-o||-3-3-3--5-5-5---|| 
||-------------------------|-----------------------|----------------------|------------------||----------------|| 
 
 
 
Verso 3 sobre riff 1 
 
E5                 C5     D5 
Puller here at the Bottle Top, 
E5                G5    A5 
Whiskey, dancing, disco hop 
    E5               C5    D5 
Now all the boys are after me, 
    E5                  G5    A5 
And that's the way it's gonna be, yeah 
 
 
 
Repete Refrão 
 
 
 
Final 
                                                                      1. 2. & 3. 
     E5             G5                     A5                           C5            D5            (x3) 
||----------------------|----------------------|---------------------|-------------------------------|| 
||o---------------------|----------------------|---------------------|------------------------------o|| 
||---9--------------12--|--12--------------14--|--14--------------x--|--5----x--x--x--7----x--x--x---|| 
||---9--------------12--|--12--------------14--|--14--------------x--|--5----x--x--x--7----x--x--x---|| 
||o--7--------------10--|--10--------------12--|--12--------------x--|--3----x--x--x--5----x--x--x--o|| 
||----------------------|----------------------|---------------------|-------------------------------|| 
 
 
 4.                                                                                                  
|-------------------------|-9----------------------------------------------------------------| 
|-------------------------|---12-10-12-10----10----------------------------------------------| 
|--5----x--x--x--7--------|---------------12----12-11-12-11-9-11-9----9----------------------| 
|--5----x--x--x--7--------|----------------------------------------12---12-11-12-11-9-11-9---| 
|--3----x--x--x--5--------|---------------------------------------------------------------12-| 
|-------------------------|------------------------------------------------------------------| 
 
 
 
|-10---10-------12----12\--| 
|--------------------------| 
|--------------------------| 
|--------------------------| 
|--------------------------| 
|--------------------------| 

	  

Full key step upFull key step up
Half key step upHalf key step up
Half key step downHalf key step down
Full key step downFull key step down
Search Paypal
auto scroll beats size up size down change color hide chords drawings
tab show chords e-chords YouTube Clip e-chords hide all tabs e-chords go to top tab