Iron Maiden

home > Iron Maiden

Breve New World Tab

Iron Maiden

Difficulty: nolevelnolevel

by victor%2Eh

tuner correct add songbook print version text version save to e-mail
chordsukulelecavacokeyboardtabbassdrummharmonicsflute Guitar Pro
chords

Breve New World

  		----------------------------------|----------------------------------|-------| 
------6-----5-----8-----6-----5----|-----6-----5-----8-----6-----5----|-------| 
-----------------------------------|----------------------------------|-------| 
----7-----7-----7-----7-----7------|---7-----7-----7-----7-----7------|-------| 
--5-----5-----5-----5-----5--------|-5-----5-----5-----5-----5--------|-------| 
-----------------------------------|----------------------------------|-------| 
 
 Intro: Guitar 1 {muted and clean} 
 
-----------------------------------|----------------------------------|-------| 
--10--------13---------8-----------|--6-----------8---------8---------|-------| 
--9---------12---------7-----------|--5-----------7---------7---------|-------| 
--7---------10---------5-----------|--3-----------5---------5---------|-------| 
-----------------------------------|----------------------------------|-------| 
-----------------------------------|----------------------------------|-------| 
 
 Intro: Guitar 2 {clean} 
 
-----------------------------------|----------------------------------|-------| 
------6-----5-----8-----6-----5----|-----6-----5-----8-----6-----5----|-------| 
-----------------------------------|----------------------------------|-------| 
----7-----7-----7-----7-----7------|---7-----7-----7-----7-----7------|-------| 
--5-----5-----5-----5-----5--------|-5-----5-----5-----5-----5--------|-------| 
-----------------------------------|----------------------------------|-------| 
 
-----------------------------------|----------------------------------|-------| 
--10---------13-----8--6--8--8/10--|----------------------------------|-------| 
--9----------12-----7--5--7--7/9---|----------------------------------|-------| 
--7----------10-----5--3--5--5/7---|----------------------------------|-------| 
-----------------------------------|----------------------------------|-------| 
-----------------------------------|----------------------------------|-------| 
 
-----------------------------------|------------------------------------------| 
-----------------------------------|------------------------------------------| 
-5--------5--------5--------5------|------------------------------------------| 
-5--5--5--5--5--5--5--5--5--5------|------------------------------------------| 
-3--3--3--3--3--3--3--3--3--3------|------------------------------------------| 
-----------------------------------|------------------------------------------| 
 
 Guitar 3 at the end of intro {distorted} 
 
-----------------------------------|----------------------------------|-------| 
-----------------------------------|----------------------------------|-------| 
-7-----------------7----7----7-----|--3-----------------3----3----3---|-------| 
-7----7----7-------7----7----7-----|--3----3----3-------3----3----3---|-------| 
-5----5----5-------5----5----5-----|--1----1----1-------1----1----1---|-------| 
-----------------------------------|----------------------------------|-------| 
 
 Verse Part 1: Guitar 1 {2x}  {'Wilderness...'} 
 
-----------------------------------|----------------------------------|-------| 
-10---------13---------------------|----------------------------------|-------| 
----------------------12v----------|---10--------12--------12v--------|-------| 
-----------------------------------|----------------------------------|-------| 
-----------------------------------|----------------------------------|-------| 
-----------------------------------|----------------------------------|-------| 
 
 Verse Melody Part 1: Guitar 2 {2x} 
 
-----------------------------------|----------------------------------|-------| 
-----------------------------------|----------------------------------|-------| 
--5----------------5----5----5-----|--7----------------7----7----7----|-------| 
--5----5----5------5----5----5-----|--7----7---7-------7----7----7----|-------| 
--3----3----3------3----3----3-----|--5----5---5-------5----5----5----|-------| 
-----------------------------------|----------------------------------|-------| 
 
-----------------------------------|----------------------------------|-------| 
-10----13--------------------------|-13-----10v-----------------------|-------| 
---------------12------10----------|----------------------------------|-------| 
-----------------------------------|----------------------------------|-------| 
-----------------------------------|----------------------------------|-------| 
-----------------------------------|----------------------------------|-------| 
 
-----------------------------------|----------------------------------|-------| 
-----------------------------------|----------------------------------|-------| 
--3---3---3--------3-------3-------|---5---5---5--------5-------5-----|-------| 
--3---3---3--------3-------3-------|---5---5---5--------5-------5-----|-------| 
--1---1---1--------1-------1-------|---3---3---3--------3-------3-----|-------| 
-----------------------------------|----------------------------------|-------| 
 
 Verse Part 2: Guitar 1 {2x}  {'What you see...'} 
 
-----------------------------------|----------------------------------|-------| 
-10---------13---------------------|----------------------------------|-------| 
----------------------12v----------|---10--------12--------12v--------|-------| 
-----------------------------------|----------------------------------|-------| 
-----------------------------------|----------------------------------|-------| 
-----------------------------------|----------------------------------|-------| 
 
 Verse Melody Part 2: Guitar 2 {2x} 
 
-----------------------------------|----------------------------------|-------| 
-----------------------------------|----------------------------------|-------| 
--3---3---3--------3-------3-------|--5--------------7----------------|-------| 
--3---3---3--------3-------3-------|--5--------------7----------------|-------| 
--1---1---1--------1-------1-------|--3--------------5----------------|-------| 
-----------------------------------|----------------------------------|-------| 
 
-----------------------------------|----------------------------------|-------| 
-10----13--------------------------|--------10v-----------------------|-------| 
---------------12------10----------|-12-------------------------------|-------| 
-----------------------------------|----------------------------------|-------| 
-----------------------------------|----------------------------------|-------| 
-----------------------------------|----------------------------------|-------| 
 
----------------------------------------------------------------------|-------| 
----------------------------------------------------------------------|-------| 
-7--------7-----3--------3-----5--------5----7--------7---------------|-------| 
-7--7--7--7-----3--3--3--3-----5--5--5--5----7--7--7--7---------------|-------| 
-5--5--5--5-----1--1--1--1-----3--3--3--3----5--5--5--5---------------|-------| 
----------------------------------------------------------------------|-------| 
 
 Chorus: Guitar 1 {4x} 
 
----------------------------------------------------------------------|-------| 
----------------------------------------------------------------------|-------| 
-7--------7-----3--------3-------------------7--------7---------------|-------| 
-7--7--7--7-----3--3--3--3-----5--------5----7--7--7--7---------------|-------| 
-5--5--5--5-----1--1--1--1-----5--5--5--5----5--5--5--5---------------|-------| 
-------------------------------3--3--3--3-----------------------------|-------| 
 
----------------------------------------------------------------------|-------| 
----------------------------------------------------------------------|-------| 
----------------------------------------------------------------------|-------| 
--10--10--10/12--12--12\---10---10------------------------------------|-------| 
--8---8---8-/10--10--10\---8----8-------------------------------------|-------| 
----------------------------------------------------------------------|-------| 
 
 Chorus Guitar 2&3: Fill 1 {on 2nd time} 
 
----------------------------------------------------------------------|-------| 
----------------------------------------------------------------------|-------| 
----------------------------------------------------------------------|-------| 
--10--10--10--10--10---12---10----------------------------------------|-------| 
--8---8---8---8---8----10---8-----------------------------------------|-------| 
----------------------------------------------------------------------|-------| 
 
 Chorus: Guitar 2: Fill 2 {on 4th time} 
 
----------------------------------------------------------------------|-------| 
----------------------------------------------------------------------|-------| 
--7---7---7-------3---3---3-------5---5---5------7---7---7------------|-------| 
--7---7---7-------3---3---3-------5---5---5------7---7---7------------|-------| 
--5---5---5-------1---1---1-------3---3---3------5---5---5------------|-------| 
----------------------------------------------------------------------|-------| 
 
 Rythm for Solo 1 {2x} 
 
----------------------------------------------------------------------|-------| 
----------------------------------------------------------------------|-------| 
--3---3---3-------5---5---5-------3---3---3------7--------------------|-------| 
--3---3---3-------5---5---5-------3---3---3------7--------------------|-------| 
--1---1---1-------3---3---3-------1---1---1------5--------------------|-------| 
----------------------------------------------------------------------|-------| 
 
 Rythm for Solo Interlude {2x} 
 
-15b17-15-13-12-13-15-15b17-15-13-12-----15b17-15-13-12---------------|-------| 
-------------------------------------13-----------------13----15------|-------| 
-----------------------------------------------------------14---------|-------| 
----------------------------------------------------------------------|-------| 
----------------------------------------------------------------------|-------| 
----------------------------------------------------------------------|-------| 
 
 Solo Interlude 
 
-15b17-15-13-12-13-15-15b17-15-13-12-13-15-15b17-15-13-12-13-15b17----|-------| 
----------------------------------------------------------------------|-------| 
----------------------------------------------------------------------|-------| 
----------------------------------------------------------------------|-------| 
----------------------------------------------------------------------|-------| 
----------------------------------------------------------------------|-------| 
 
----------------------------------------------------------------------|-------| 
----------------------------------------------------------------------|-------| 
--9---9---9-------5---5---5-------7---7---7------9---9---9------------|-------| 
--9---9---9-------5---5---5-------7---7---7------9---9---9------------|-------| 
--7---7---7-------3---3---3-------5---5---5------7---7---7------------|-------| 
----------------------------------------------------------------------|-------| 
 
 Rythm for Solo 2 {2x} 
 
---------------------|----------------------|-------------------------|-------| 
---------------------|----------------------|-------------------------|-------| 
--4v--5---7v---------|--4v--5---7v----------|------4--5--4v-----------|-------| 
---------------------|----------------------|--7v---------------------|-------| 
---------------------|----------------------|-------------------------|-------| 
---------------------|----------------------|-------------------------|-------| 
 
 Interlude: Guitar 1 
 
---------------------|----------------------|-------------------------|-------| 
---------------------|----------------------|-------------------------|-------| 
---------------------|----------------------|-------------------------|-------| 
---------------------|----------------------|-------------------------|-------| 
--7v--9---10v--------|--7v--9---10v---------|------7--9--7v-----------|-------| 
---------------------|----------------------|--10v--------------------|-------| 
 
 Interlude: Guitar 2 
 
---------------------|----------------------|-------------------------|-------| 
---------------------|----------------------|-------------------------|-------| 
---9v--11--12v-------|--9v--11--12v---------|------9--11--9v----------|-------| 
---------------------|----------------------|--12v--------------------|-------| 
---------------------|----------------------|-------------------------|-------| 
---------------------|----------------------|-------------------------|-------| 
 
 Interlude: Guitar 3 {enters on 2nd time} 
 
--------------------------------------------|---------------------------------| 
-------------------------------5------------|---------------------------------| 
------4-----4-5---4-5-7--4-5-7--------------|---------------------------------| 
--5-7---5-7-----7---------------------------|---------------------------------| 
--------------------------------------------|---------------------------------| 
--------------------------------------------|---------------------------------| 
 
 Interlude ending 1: Guitar 1 {on 3nd time} 
 
--------------------------------------------|---------------------------------| 
--------------------------------------------|---------------------------------| 
--------------------------------------------|---------------------------------| 
-----------------7------7-9-----7-9-10------|---------------------------------| 
--7-9-10--7-9-10---9-10-----10--------------|---------------------------------| 
--------------------------------------------|---------------------------------| 
 
 Interlude ending 1: Guitar 2 
 
--------------------------------------------|---------------------------------| 
--------------------------------------------|---------------------------------| 
--4-----------------------------------------|---------------------------------| 
----7-5--4-7-5-4---5-4----------------------|---------------------------------| 
-----------------7-----7-5-7----------------|---------------------------------| 
--------------------------------------------|---------------------------------| 
 
 Interlude ending 2: Guitar 1 {on 4th time} 
 
--------------------------------------------|---------------------------------| 
--------------------------------------------|---------------------------------| 
--------------------------------------------|---------------------------------| 
--9-7------7--------------------------------|---------------------------------| 
------10-9---10-9-7--10-9-7-----------------|---------------------------------| 
----------------------------10--------------|---------------------------------| 
 
 Interlude ending 2: Guitar 2 
 
--------------------------------------------|---------------------------------| 
-12-10-------10-----------------------------|---------------------------------| 
-------12-11----12-11-9--12-11-10-----------|---------------------------------| 
----------------------------------12--------|---------------------------------| 
--------------------------------------------|---------------------------------| 
--------------------------------------------|---------------------------------| 
 
 Interlude ending 2: Guitar 3 
 
-----------------------------------|----------------------------------|-------| 
------6-----5-----8-----6-----5----|-----6-----5-----8-----6-----5----|-------| 
-----------------------------------|----------------------------------|-------| 
----7-----7-----7-----7-----7------|---7-----7-----7-----7-----7------|-------| 
--5-----5-----5-----5-----5--------|-5-----5-----5-----5-----5--------|-------| 
-----------------------------------|----------------------------------|-------| 
 
 Outro: Guitar 1 {muted and clean} 
 
-----------------------------------|----------------------------------|-------| 
-----------------------------------|----------------------------------|-------| 
--10---------13----------8---------|--6-----------8---------8---------|-------| 
--9----------12----------7---------|--5-----------7---------7---------|-------| 
--7----------10----------5---------|--3-----------5---------5---------|-------| 
-----------------------------------|----------------------------------|-------| 
 
 Outro: Guitar 2 {clean} 
 
---------------------------------|------------------------------------|-------| 
-----6-----5-----8-----6-----5---|-----6-----5-----8-----6-----6------|-------| 
---------------------------------|-----------------------------7------|-------| 
---7-----7-----7-----7-----7-----|---7-----7-----7-----7-------7------|-------| 
-5-----5-----5-----5-----5-------|-5-----5-----5-----5---------5------|-------| 
---------------------------------|------------------------------------|-------| 
 
                                                            (let ring) 
 
---------------------------------|------------------------------------|-------| 
-10---13------8------6-----------|--7-------10------------------------|-------| 
-9----12------7------5-----------|--7-------9-------------------------|-------| 
-7----10------5------3-----------|--5-------7-------------------------|-------| 
---------------------------------|------------------------------------|-------| 
---------------------------------|------------------------------------|-------| 
 
 

	  

Search Paypal
auto scroll beats size up size down change color hide chords drawings
tab show chords e-chords YouTube Clip e-chords hide all tabs e-chords go to top tab