Iron Maiden

home > Iron Maiden

Be Quick or Be Dead (ver. 2) Tab

Iron Maiden

Difficulty: nolevelnolevel

by xxDiogo+Brunoxx

tuner correct add songbook print version text version save to e-mail
chordsukulelecavacokeyboardtabbassdrumsharmonicsflute Guitar Pro
chords

Be Quick or Be Dead (ver. 2)

  		                                                                    IRON MAIDEN 
Guitarra do Dave 
 
 
*O Guitar pro conta como se o Tempo da musica fosse 260, + acho que é um pouco 
menos, p/ pegar os compassos melhor só escutar a musica com atenção 
                                                                               
E||------------------------|-------------------------|-----------------------| 
B||------------------------|-------------------------|-----------------------| 
G||------------------------|-------------------------|-----------------------| 
D||-------5p-0--0----1p-0--|--3p-0--1p-0--0----0-----|------5p-0--0----1p-0--| 
A||------------------------|-------------------------|-----------------------| 
E||--3---------------------|----------------------3--|-----------------------| 
 
 
                                                                            
------------------------|-----------------------|-------------------------| 
------------------------|-----------------------|-------------------------| 
------------------------|-----------------------|-------------------------| 
--3p-0--1p-0------------|------5p-0--0----1p-0--|--3p-0--1p-0--0----0-----| 
--------------3---------|-----------------------|-------------------------| 
---------------------3--|-----------------------|----------------------3--| 
 
 
                                                                             
-----------------------|--------------------------|------------------------| 
-----------------------|--------------------------|------------------------| 
-----------------------|--------------------------|------------------------| 
------5p-0--0----1p-0--|--3p-0--1p-0--------------|-------5p-0--0----1p-0--| 
-----------------------|--------------3p-1p-0-----|------------------------| 
-----------------------|-----------------------3--|--3---------------------| 
 
 
                                                                            
-------------------------|-----------------------|------------------------| 
-------------------------|-----------------------|------------------------| 
-------------------------|-----------------------|------------------------| 
--3p-0--1p-0--0----0-----|------5p-0--0----1p-0--|--3p-0--1p-0------------| 
-------------------------|-----------------------|--------------3---------| 
----------------------3--|-----------------------|---------------------3--| 
 
 
                                                                           
-----------------------|-------------------------|-----------------------| 
-----------------------|-------------------------|-----------------------| 
-----------------------|-------------------------|-----------------------| 
------5p-0--0----1p-0--|--3p-0--1p-0--0----0-----|------5p-0--0----1p-0--| 
-----------------------|-------------------------|-----------------------| 
-----------------------|----------------------3--|-----------------------| 
 
 
                                                                              
--------------------------|------------------------|------------------------| 
--------------------------|------------------------|------------------------| 
--------------------------|------------------------|------------------------| 
--3p-0--1p-0--------------|------------------------|------------------------| 
--------------3p-1p-0-----|------------------------|------------------------| 
-----------------------3--|--3----3--3----3--3--3--|--3----3--3----3--3--3--| 
 
 
                                                                         
------------------------|---------------------|------------------------| 
------------------------|---------------------|------------------------| 
------------------------|---------------------|------------------------| 
------------------------|--7------8------8/---|------------------------| 
------------------------|--5------6------6/---|------------------------| 
--3----3--3----3--3--3--|---------------------|--3----3--3----3--3--3--| 
 
 
                                                                    
------------------------|--------------------|--------------------| 
------------------------|--------------------|--------------------| 
------------------------|--------------------|--------------------| 
------------------------|--3------5----------|--8------8----------| 
------------------------|--1------3----------|--6------5----------| 
--3----3--3----3--3--3--|--------------------|--------------------| 
 
 
                                                                            
------------------------|------------------------|------------------------| 
------------------------|------------------------|------------------------| 
------------------------|------------------------|------------------------| 
------------------------|------------------------|------------------------| 
------------------------|------------------------|------------------------| 
--3----3--3----3--3--3--|--3----3--3----3--3--3--|--3----3--3----3--3--3--| 
 
 
                                                                         
---------------------|------------------------|------------------------| 
---------------------|------------------------|------------------------| 
---------------------|------------------------|------------------------| 
--7------8------8/---|------------------------|------------------------| 
--5------6------6/---|------------------------|------------------------| 
---------------------|--3----3--3----3--3--3--|--3----3--3----3--3--3--| 
 
 
                                                                     
--------------------|----------------------|-----------------------| 
--------------------|----------------------|-----------------------| 
--------------------|----------------------|-----------------------| 
--3------5----------|--8------8------------|--5----5--5----5--5----| 
--1------3----------|--6------5------3--1--|--3----3--3----3--3----| 
--------------------|----------------------|-----------------------| 
 
 
                                                                         
-----------------------|-----------------------|-----------------------| 
-----------------------|-----------------------|-----------------------| 
-----------------------|-----------------------|-----------------------| 
--5----5--5----5--5----|--3----3--3----3--3----|-----------------------| 
--3----3--3----3--3----|--1----1--1----1--1----|--3----3--3----3--3----| 
-----------------------|-----------------------|--1----1--1----1--1----| 
 
 
                                                                         
-----------------------|-----------------------|-----------------------| 
-----------------------|-----------------------|-----------------------| 
-----------------------|-----------------------|-----------------------| 
--5----5--5----5--5----|--5----5--5----5--5----|--3----3--3----3--3----| 
--3----3--3----3--3----|--3----3--3----3--3----|--1----1--1----1--1----| 
-----------------------|-----------------------|-----------------------| 
 
 
                                                                       
---------------------|-----------------------|-----------------------| 
---------------------|-----------------------|-----------------------| 
---------------------|-----------------------|-----------------------| 
--8------8------8/---|--5----5--5----5--5----|--5----5--5----5--5----| 
--6------5------6/---|--3----3--3----3--3----|--3----3--3----3--3----| 
---------------------|-----------------------|-----------------------| 
 
 
                                                                         
-----------------------|-----------------------|-----------------------| 
-----------------------|-----------------------|-----------------------| 
-----------------------|-----------------------|-----------------------| 
--3----3--3----3--3----|-----------------------|--5----5--5----5--5----| 
--1----1--1----1--1----|--3----3--3----3--3----|--3----3--3----3--3----| 
-----------------------|--1----1--1----1--1----|-----------------------| 
 
 
                                                                       
-----------------------|-----------------------|---------------------| 
-----------------------|-----------------------|---------------------| 
-----------------------|-----------------------|---------------------| 
--5----5--5----5--5----|--3----3--3----3--3----|--8------8------8/---| 
--3----3--3----3--3----|--1----1--1----1--1----|--6------5------6/---| 
-----------------------|-----------------------|---------------------| 
 
 
                                                                            
-------------------------|-----------------------|------------------------| 
-------8/-10--8----------|------6/-8--6----------|------------------------| 
-------------------7-----|-----------------7-----|------8/-10--8----5-----| 
--5-------------------5--|--------------------5--|---------------------5--| 
-------------------------|-----------------------|------------------------| 
-------------------------|-----------------------|------------------------| 
 
 
                                                                            
-------------------------|------------------------|-----------------------| 
-------------------------|------8/-10--8----------|------6/-8--6----------| 
----8--8--8--8p-7--5-----|------------------7-----|-----------------7-----| 
----------------------5--|---------------------5--|--------------------5--| 
-------------------------|------------------------|-----------------------| 
-------------------------|------------------------|-----------------------| 
 
 
                                                                             
------------------------|-------------------------|------------------------| 
------------------------|-------------------------|------8/-10--8----------| 
------8/-10--8----5-----|----8--8--8--8p-7--5-----|------------------7-----| 
---------------------5--|----------------------5--|---------------------5--| 
------------------------|-------------------------|------------------------| 
------------------------|-------------------------|------------------------| 
 
 
                                                                            
-----------------------|------------------------|-------------------------| 
------6/-8--6----------|------------------------|-------------------------| 
-----------------7-----|------8/-10--8----5-----|----8--8--8--8p-7--5-----| 
--------------------5--|---------------------5--|----------------------5--| 
-----------------------|------------------------|-------------------------| 
-----------------------|------------------------|-------------------------| 
 
 
                                                                           
------------------------|-----------------------|------------------------| 
------8/-10--8----------|------6/-8--6----------|------------------------| 
------------------7-----|-----------------7-----|------8/-10--8----5-----| 
---------------------5--|--------------------5--|---------------------5--| 
------------------------|-----------------------|------------------------| 
------------------------|-----------------------|------------------------| 
 
 
                                                                  
-------------------------|-------------------|------------------| 
-------------------------|-------------------|------------------| 
----8--8--8--8p-7--5-----|-------------------|------------------| 
----------------------5--|--3----------------|------------------| 
-------------------------|--3----------------|------------------| 
-------------------------|--1----------------|------------------| 
 
 
                                                                               
-------------------|------------------|-------------------|------------------| 
-------------------|------------------|-------------------|------------------| 
--0----------------|------------------|-------------------|------------------| 
--5----------------|------------------|--3----------------|------------------| 
--5----------------|------------------|--3----------------|------------------| 
--3----------------|------------------|--1----------------|------------------| 
 
 
                                                                               
-------------------|------------------|-------------------|------------------| 
-------------------|------------------|-------------------|------------------| 
--0----------------|------------------|-------------------|------------------| 
--5----------------|------------------|--3----------------|------------------| 
--5----------------|------------------|--3----------------|------------------| 
--3----------------|------------------|--1----------------|------------------| 
 
 
                                                                               
-------------------|------------------|-------------------|------------------| 
-------------------|------------------|-------------------|------------------| 
--0----------------|------------------|-------------------|------------------| 
--5----------------|------------------|--3----------------|------------------| 
--5----------------|------------------|--3----------------|------------------| 
--3----------------|------------------|--1----------------|------------------| 
 
 
                                                             
-------------------|------------------|--------------------| 
-------------------|------------------|--------------------| 
--0----------------|------------------|--------------------| 
--5----------------|------------------|--3-----------------| 
--5----------------|------------------|--1------3----------| 
--3----------------|------------------|---------1----------| 
 
 
                                                               
--------------------|---------------------|------------------| 
--------------------|---------------------|------------------| 
--------------------|---------------------|------------------| 
--5-----------------|--3------------------|------------------| 
--3------5----------|--1------3------5----|------------------| 
---------3----------|---------1------3----|------------------| 
 
 
                                                                 
--------------------|--------------------|---------------------| 
--------------------|--------------------|---------------------| 
--------------------|--------------------|---------------------| 
--3-----------------|--5-----------------|--3------5------7----| 
--1------3----------|--3------5----------|--1------3------5----| 
---------1----------|---------3----------|---------------------| 
 
 
                                                              
------------------|-------------------|---------------------| 
------------------|-------------------|---------------------| 
------------------|-------------------|---------------------| 
------------------|--8----------------|--10-----------------| 
------------------|--6----------------|--8------------------| 
------------------|-------------------|------------------3--| 
 
 
                                                                           
-----------------------|-------------------------|-----------------------| 
-----------------------|-------------------------|-----------------------| 
-----------------------|-------------------------|-----------------------| 
------5p-0--0----1p-0--|--3p-0--1p-0--0----0-----|------5p-0--0----1p-0--| 
-----------------------|-------------------------|-----------------------| 
-----------------------|----------------------3--|-----------------------| 
 
 
                                                                            
------------------------|-----------------------|-------------------------| 
------------------------|-----------------------|-------------------------| 
------------------------|-----------------------|-------------------------| 
--3p-0--1p-0------------|------5p-0--0----1p-0--|--3p-0--1p-0--0----0-----| 
--------------3---------|-----------------------|-------------------------| 
---------------------3--|-----------------------|----------------------3--| 
 
 
                                                                             
-----------------------|--------------------------|------------------------| 
-----------------------|--------------------------|------------------------| 
-----------------------|--------------------------|------------------------| 
------5p-0--0----1p-0--|--3p-0--1p-0--------------|-------5p-0--0----1p-0--| 
-----------------------|--------------3p-1p-0-----|------------------------| 
-----------------------|-----------------------3--|--3---------------------| 
 
 
                                                                            
-------------------------|-----------------------|------------------------| 
-------------------------|-----------------------|------------------------| 
-------------------------|-----------------------|------------------------| 
--3p-0--1p-0--0----0-----|------5p-0--0----1p-0--|--3p-0--1p-0------------| 
-------------------------|-----------------------|--------------3---------| 
----------------------3--|-----------------------|---------------------3--| 
 
 
                                                                           
-----------------------|-------------------------|-----------------------| 
-----------------------|-------------------------|-----------------------| 
-----------------------|-------------------------|-----------------------| 
------5p-0--0----1p-0--|--3p-0--1p-0--0----0-----|------5p-0--0----1p-0--| 
-----------------------|-------------------------|-----------------------| 
-----------------------|----------------------3--|-----------------------| 
 
 
                                                                              
--------------------------|------------------------|------------------------| 
--------------------------|------------------------|------------------------| 
--------------------------|------------------------|------------------------| 
--3p-0--1p-0--------------|------------------------|------------------------| 
--------------3p-1p-0-----|------------------------|------------------------| 
-----------------------3--|--3----3--3----3--3--3--|--3----3--3----3--3--3--| 
 
 
                                                                         
------------------------|---------------------|------------------------| 
------------------------|---------------------|------------------------| 
------------------------|---------------------|------------------------| 
------------------------|--7------8------8/---|------------------------| 
------------------------|--5------6------6/---|------------------------| 
--3----3--3----3--3--3--|---------------------|--3----3--3----3--3--3--| 
 
 
                                                                    
------------------------|--------------------|--------------------| 
------------------------|--------------------|--------------------| 
------------------------|--------------------|--------------------| 
------------------------|--3------5----------|--8------8----------| 
------------------------|--1------3----------|--6------5----------| 
--3----3--3----3--3--3--|--------------------|--------------------| 
 
 
                                                                            
------------------------|------------------------|------------------------| 
------------------------|------------------------|------------------------| 
------------------------|------------------------|------------------------| 
------------------------|------------------------|------------------------| 
------------------------|------------------------|------------------------| 
--3----3--3----3--3--3--|--3----3--3----3--3--3--|--3----3--3----3--3--3--| 
 
 
                                                                         
---------------------|------------------------|------------------------| 
---------------------|------------------------|------------------------| 
---------------------|------------------------|------------------------| 
--7------8------8/---|------------------------|------------------------| 
--5------6------6/---|------------------------|------------------------| 
---------------------|--3----3--3----3--3--3--|--3----3--3----3--3--3--| 
 
 
                                                                     
--------------------|----------------------|-----------------------| 
--------------------|----------------------|-----------------------| 
--------------------|----------------------|-----------------------| 
--3------5----------|--8------8------------|--5----5--5----5--5----| 
--1------3----------|--6------5------3--1--|--3----3--3----3--3----| 
--------------------|----------------------|-----------------------| 
 
 
                                                                         
-----------------------|-----------------------|-----------------------| 
-----------------------|-----------------------|-----------------------| 
-----------------------|-----------------------|-----------------------| 
--5----5--5----5--5----|--3----3--3----3--3----|-----------------------| 
--3----3--3----3--3----|--1----1--1----1--1----|--3----3--3----3--3----| 
-----------------------|-----------------------|--1----1--1----1--1----| 
 
 
                                                                         
-----------------------|-----------------------|-----------------------| 
-----------------------|-----------------------|-----------------------| 
-----------------------|-----------------------|-----------------------| 
--5----5--5----5--5----|--5----5--5----5--5----|--3----3--3----3--3----| 
--3----3--3----3--3----|--3----3--3----3--3----|--1----1--1----1--1----| 
-----------------------|-----------------------|-----------------------| 
 
 
                                                                       
---------------------|-----------------------|-----------------------| 
---------------------|-----------------------|-----------------------| 
---------------------|-----------------------|-----------------------| 
--8------8------8/---|--5----5--5----5--5----|--5----5--5----5--5----| 
--6------5------6/---|--3----3--3----3--3----|--3----3--3----3--3----| 
---------------------|-----------------------|-----------------------| 
 
 
                                                                         
-----------------------|-----------------------|-----------------------| 
-----------------------|-----------------------|-----------------------| 
-----------------------|-----------------------|-----------------------| 
--3----3--3----3--3----|-----------------------|--5----5--5----5--5----| 
--1----1--1----1--1----|--3----3--3----3--3----|--3----3--3----3--3----| 
-----------------------|--1----1--1----1--1----|-----------------------| 
 
 
                                                                       
-----------------------|-----------------------|---------------------| 
-----------------------|-----------------------|---------------------| 
-----------------------|-----------------------|---------------------| 
--5----5--5----5--5----|--3----3--3----3--3----|--8------8------8/---| 
--3----3--3----3--3----|--1----1--1----1--1----|--6------5------6/---| 
-----------------------|-----------------------|---------------------| 
 
 
                                                                            
-------------------------|-----------------------|------------------------| 
-------8/-10--8----------|------6/-8--6----------|------------------------| 
-------------------7-----|-----------------7-----|------8/-10--8----5-----| 
--5-------------------5--|--------------------5--|---------------------5--| 
-------------------------|-----------------------|------------------------| 
-------------------------|-----------------------|------------------------| 
 
 
                                                                            
-------------------------|------------------------|-----------------------| 
-------------------------|------8/-10--8----------|------6/-8--6----------| 
----8--8--8--8p-7--5-----|------------------7-----|-----------------7-----| 
----------------------5--|---------------------5--|--------------------5--| 
-------------------------|------------------------|-----------------------| 
-------------------------|------------------------|-----------------------| 
 
 
                                                                             
------------------------|-------------------------|------------------------| 
------------------------|-------------------------|------8/-10--8----------| 
------8/-10--8----5-----|----8--8--8--8p-7--5-----|------------------7-----| 
---------------------5--|----------------------5--|---------------------5--| 
------------------------|-------------------------|------------------------| 
------------------------|-------------------------|------------------------| 
 
 
                                                                            
-----------------------|------------------------|-------------------------| 
------6/-8--6----------|------------------------|-------------------------| 
-----------------7-----|------8/-10--8----5-----|----8--8--8--8p-7--5-----| 
--------------------5--|---------------------5--|----------------------5--| 
-----------------------|------------------------|-------------------------| 
-----------------------|------------------------|-------------------------| 
 
 
                                                                           
------------------------|-----------------------|------------------------| 
------8/-10--8----------|------6/-8--6----------|------------------------| 
------------------7-----|-----------------7-----|------8/-10--8----5-----| 
---------------------5--|--------------------5--|---------------------5--| 
------------------------|-----------------------|------------------------| 
------------------------|-----------------------|------------------------| 
 
 
                                                                       
-------------------------|---------------------|---------------------| 
-------------------------|---------------------|---------------------| 
----8--8--8--8p-7--5-----|---------------------|---------------------| 
----------------------5--|--5-------------5----|-----------5---------| 
-------------------------|--3------3------3----|------3----3----3----| 
-------------------------|---------1-----------|------1---------1----| 
 
 
                                                                  
---------------------|--------------------|---------------------| 
---------------------|--------------------|---------------------| 
---------------------|--------------------|---------------------| 
--5-------------5----|------8----8--------|--5-------------5----| 
--3------3------3----|------6----6--------|--3------3------3----| 
---------1-----------|--------------------|---------1-----------| 
 
 
                                                                  
---------------------|---------------------|--------------------| 
---------------------|---------------------|--------------------| 
---------------------|---------------------|--------------------| 
-----------5---------|--5-------------5----|------3-------------| 
------3----3----3----|--3------3------3----|------1----8--------| 
------1---------1----|---------1-----------|-----------4--------| 
 
 
                                                                   
---------------------|---------------------|---------------------| 
---------------------|---------------------|---------------------| 
---------------------|---------------------|---------------------| 
--5-------------5----|-----------5---------|--5-------------5----| 
--3------3------3----|------3----3----3----|--3------3------3----| 
---------1-----------|------1---------1----|---------1-----------| 
 
 
                                                                  
--------------------|---------------------|---------------------| 
--------------------|---------------------|---------------------| 
--------------------|---------------------|---------------------| 
------8----8--------|--5-------------5----|-----------5---------| 
------6----6--------|--3------3------3----|------3----3----3----| 
--------------------|---------1-----------|------1---------1----| 
 
 
                                                                   
---------------------|--------------------|--15~-----------15~---| 
---------------------|--------------------|----------------------| 
---------------------|--------------------|----------------------| 
--5-------------5----|------3-------------|----------------------| 
--3------3------3----|------1----8--------|----------------------| 
---------1-----------|-----------4--------|----------------------| 
 
 
                                                         
----------15/-----16b-|----15p-13p-11--15p-13p-12--13~-| 
----------------------|--------------------------------| 
----------------------|--------------------------------| 
----------------------|--------------------------------| 
----------------------|--------------------------------| 
----------------------|--------------------------------| 
 
 
                                                                           
----------------10h-11p-10--|--11p-10------------------------------------| 
------------11--------------|----------11--10h-11p-10------------10h-11p-| 
----------------------------|--------------------------11p10-12----------| 
----------------------------|--------------------------------------------| 
----------------------------|--------------------------------------------| 
----------------------------|--------------------------------------------| 
 
 
                                                
--------------11p-10--------------------------| 
--10--10h-13----------13p-11p-10--11p-10------| 
------------------------------------------12--| 
----------------------------------------------| 
----------------------------------------------| 
----------------------------------------------| 
 
 
                                                                               
--------------------------------------------|--------------------------------| 
--------------------------------------------|----------------------------11--| 
--10h-12p-10h-11p-9h-11p-8h-10p-8h-9p-7h-9--|--10h-12p-10--12--10/-----------| 
--------------------------------------------|--------------------------------| 
--------------------------------------------|--------------------------------| 
--------------------------------------------|--------------------------------| 
 
 
                                                                                
------------------------|----------17--17--17--15--18-18b|----------------17--| 
--11----10----17b-------|------15------------------------|--------------------| 
------------------------|--------------------------------|--------------------| 
------------------------|--------------------------------|--------------------| 
------------------------|--------------------------------|--------------------| 
------------------------|--------------------------------|--------------------| 
 
 
                                                                                 
--15~-------15h-17--15/-13--|--15p-13------12h-13p-12--------------------------| 
----------------------------|----------15--------------15p-13--15p-13------13--| 
----------------------------|------------------------------------------15------| 
----------------------------|--------------------------------------------------| 
----------------------------|--------------------------------------------------| 
----------------------------|--------------------------------------------------| 
 
 
                                                                       
--------------------------------|-----0------15h-18p-15h-18p-15h-18p-| 
------------11----10h11p10--11--|--0---------------------------------| 
--15p-13------------------------|------------------------------------| 
--------------------------------|------------------------------------| 
--------------------------------|------------------------------------| 
--------------------------------|------------------------------------| 
 
 
                                                                       
--15h-18p-15h-18p-15------15h-18p-15h-18p-15--18b-|------------------| 
----------------------18--------------------------|------------------| 
--------------------------------------------------|------------------| 
--------------------------------------------------|------------------| 
--------------------------------------------------|------------------| 
--------------------------------------------------|------------------| 
 
 
                                                                         
-----------------------|-----------------------|-----------------------| 
-----------------------|-----------------------|-----------------------| 
-----------------------|-----------------------|-----------------------| 
--5----5--5----5--5----|--5----5--5----5--5----|--3----3--3----3--3----| 
--3----3--3----3--3----|--3----3--3----3--3----|--1----1--1----1--1----| 
-----------------------|-----------------------|-----------------------| 
 
 
                                                                         
-----------------------|-----------------------|-----------------------| 
-----------------------|-----------------------|-----------------------| 
-----------------------|-----------------------|-----------------------| 
-----------------------|--5----5--5----5--5----|--5----5--5----5--5----| 
--3----3--3----3--3----|--3----3--3----3--3----|--3----3--3----3--3----| 
--1----1--1----1--1----|-----------------------|-----------------------| 
 
 
                                                                       
-----------------------|---------------------|-----------------------| 
-----------------------|---------------------|-----------------------| 
-----------------------|---------------------|-----------------------| 
--3----3--3----3--3----|--8------8------8/---|--5----5--5----5--5----| 
--1----1--1----1--1----|--6------5------6/---|--3----3--3----3--3----| 
-----------------------|---------------------|-----------------------| 
 
 
                                                                         
-----------------------|-----------------------|-----------------------| 
-----------------------|-----------------------|-----------------------| 
-----------------------|-----------------------|-----------------------| 
--5----5--5----5--5----|--3----3--3----3--3----|-----------------------| 
--3----3--3----3--3----|--1----1--1----1--1----|--3----3--3----3--3----| 
-----------------------|-----------------------|--1----1--1----1--1----| 
 
 
                                                                         
-----------------------|-----------------------|-----------------------| 
-----------------------|-----------------------|-----------------------| 
-----------------------|-----------------------|-----------------------| 
--5----5--5----5--5----|--5----5--5----5--5----|--3----3--3----3--3----| 
--3----3--3----3--3----|--3----3--3----3--3----|--1----1--1----1--1----| 
-----------------------|-----------------------|-----------------------| 
 
 
                                                                         
---------------------|-------------------------|-----------------------| 
---------------------|-------8/-10--8----------|------6/-8--6----------| 
---------------------|-------------------7-----|-----------------7-----| 
--8------8------8/---|--5-------------------5--|--------------------5--| 
--6------5------6/---|-------------------------|-----------------------| 
---------------------|-------------------------|-----------------------| 
 
 
                                                                             
------------------------|-------------------------|------------------------| 
------------------------|-------------------------|------8/-10--8----------| 
------8/-10--8----5-----|----8--8--8--8p-7--5-----|------------------7-----| 
---------------------5--|----------------------5--|---------------------5--| 
------------------------|-------------------------|------------------------| 
------------------------|-------------------------|------------------------| 
 
 
                                                                            
-----------------------|------------------------|-------------------------| 
------6/-8--6----------|------------------------|-------------------------| 
-----------------7-----|------8/-10--8----5-----|----8--8--8--8p-7--5-----| 
--------------------5--|---------------------5--|----------------------5--| 
-----------------------|------------------------|-------------------------| 
-----------------------|------------------------|-------------------------| 
 
 
                                                                           
------------------------|-----------------------|------------------------| 
------8/-10--8----------|------6/-8--6----------|------------------------| 
------------------7-----|-----------------7-----|------8/-10--8----5-----| 
---------------------5--|--------------------5--|---------------------5--| 
------------------------|-----------------------|------------------------| 
------------------------|-----------------------|------------------------| 
 
 
                                                                            
-------------------------|------------------------|-----------------------| 
-------------------------|------8/-10--8----------|------6/-8--6----------| 
----8--8--8--8p-7--5-----|------------------7-----|-----------------7-----| 
----------------------5--|---------------------5--|--------------------5--| 
-------------------------|------------------------|-----------------------| 
-------------------------|------------------------|-----------------------| 
 
 
                                                                          
------------------------|-------------------------|--------------------|| 
------------------------|-------------------------|--------------------|| 
------8/-10--8----5-----|----8--8--8--8p-7--5-----|--7----7/-----------|| 
---------------------5--|----------------------5--|--5----5/-----------|| 
------------------------|-------------------------|--------------------|| 
------------------------|-------------------------|--3----3/-----------|| 
 
 
Guita do Janick ou do Adrian.. 
 
                                                                               
E||------------------------|-------------------------|-----------------------| 
B||------------------------|-------------------------|-----------------------| 
G||------------------------|-------------------------|-----------------------| 
D||-------5p-0--0----1p-0--|--3p-0--1p-0--0----0-----|------5p-0--0----1p-0--| 
A||------------------------|-------------------------|-----------------------| 
E||--3---------------------|----------------------3--|-----------------------| 
 
 
                                                                            
------------------------|-----------------------|-------------------------| 
------------------------|-----------------------|-------------------------| 
------------------------|-----------------------|-------------------------| 
--3p-0--1p-0------------|------5p-0--0----1p-0--|--3p-0--1p-0--0----0-----| 
--------------3---------|-----------------------|-------------------------| 
---------------------3--|-----------------------|----------------------3--| 
 
 
                                                                             
-----------------------|--------------------------|------------------------| 
-----------------------|--------------------------|------------------------| 
-----------------------|--------------------------|------------------------| 
------5p-0--0----1p-0--|--3p-0--1p-0--------------|-------5p-0--0----1p-0--| 
-----------------------|--------------3p-1p-0-----|------------------------| 
-----------------------|-----------------------3--|--3---------------------| 
 
 
                                                                            
-------------------------|-----------------------|------------------------| 
-------------------------|-----------------------|------------------------| 
-------------------------|-----------------------|------------------------| 
--3p-0--1p-0--0----0-----|------5p-0--0----1p-0--|--3p-0--1p-0------------| 
-------------------------|-----------------------|--------------3---------| 
----------------------3--|-----------------------|---------------------3--| 
 
 
                                                                           
-----------------------|-------------------------|-----------------------| 
-----------------------|-------------------------|-----------------------| 
-----------------------|-------------------------|-----------------------| 
------5p-0--0----1p-0--|--3p-0--1p-0--0----0-----|------5p-0--0----1p-0--| 
-----------------------|-------------------------|-----------------------| 
-----------------------|----------------------3--|-----------------------| 
 
 
                                                                              
--------------------------|------------------------|------------------------| 
--------------------------|------------------------|------------------------| 
--------------------------|------------------------|------------------------| 
--3p-0--1p-0--------------|------------------------|------------------------| 
--------------3p-1p-0-----|------------------------|------------------------| 
-----------------------3--|--3----3--3----3--3--3--|--3----3--3----3--3--3--| 
 
 
                                                                         
------------------------|---------------------|------------------------| 
------------------------|---------------------|------------------------| 
------------------------|---------------------|------------------------| 
------------------------|--7------8------8/---|------------------------| 
------------------------|--5------6------6/---|------------------------| 
--3----3--3----3--3--3--|---------------------|--3----3--3----3--3--3--| 
 
 
                                                                    
------------------------|--------------------|--------------------| 
------------------------|--------------------|--------------------| 
------------------------|--------------------|--------------------| 
------------------------|--3------5----------|--8------8----------| 
------------------------|--1------3----------|--6------5----------| 
--3----3--3----3--3--3--|--------------------|--------------------| 
 
 
                                                                            
------------------------|------------------------|------------------------| 
------------------------|------------------------|------------------------| 
------------------------|------------------------|------------------------| 
------------------------|------------------------|------------------------| 
------------------------|------------------------|------------------------| 
--3----3--3----3--3--3--|--3----3--3----3--3--3--|--3----3--3----3--3--3--| 
 
 
                                                                         
---------------------|------------------------|------------------------| 
---------------------|------------------------|------------------------| 
---------------------|------------------------|------------------------| 
--7------8------8/---|------------------------|------------------------| 
--5------6------6/---|------------------------|------------------------| 
---------------------|--3----3--3----3--3--3--|--3----3--3----3--3--3--| 
 
 
                                                                     
--------------------|----------------------|-----------------------| 
--------------------|----------------------|-----------------------| 
--------------------|----------------------|-----------------------| 
--3------5----------|--8------8------------|--5----5--5----5--5----| 
--1------3----------|--6------5------3--1--|--3----3--3----3--3----| 
--------------------|----------------------|-----------------------| 
 
 
                                                                         
-----------------------|-----------------------|-----------------------| 
-----------------------|-----------------------|-----------------------| 
-----------------------|-----------------------|-----------------------| 
--5----5--5----5--5----|--3----3--3----3--3----|-----------------------| 
--3----3--3----3--3----|--1----1--1----1--1----|--3----3--3----3--3----| 
-----------------------|-----------------------|--1----1--1----1--1----| 
 
 
                                                                         
-----------------------|-----------------------|-----------------------| 
-----------------------|-----------------------|-----------------------| 
-----------------------|-----------------------|-----------------------| 
--5----5--5----5--5----|--5----5--5----5--5----|--3----3--3----3--3----| 
--3----3--3----3--3----|--3----3--3----3--3----|--1----1--1----1--1----| 
-----------------------|-----------------------|-----------------------| 
 
 
                                                                       
---------------------|-----------------------|-----------------------| 
---------------------|-----------------------|-----------------------| 
---------------------|-----------------------|-----------------------| 
--8------8------8/---|--5----5--5----5--5----|--5----5--5----5--5----| 
--6------5------6/---|--3----3--3----3--3----|--3----3--3----3--3----| 
---------------------|-----------------------|-----------------------| 
 
 
                                                                         
-----------------------|-----------------------|-----------------------| 
-----------------------|-----------------------|-----------------------| 
-----------------------|-----------------------|-----------------------| 
--3----3--3----3--3----|-----------------------|--5----5--5----5--5----| 
--1----1--1----1--1----|--3----3--3----3--3----|--3----3--3----3--3----| 
-----------------------|--1----1--1----1--1----|-----------------------| 
 
 
                                                                       
-----------------------|-----------------------|---------------------| 
-----------------------|-----------------------|---------------------| 
-----------------------|-----------------------|---------------------| 
--5----5--5----5--5----|--3----3--3----3--3----|--8------8------8/---| 
--3----3--3----3--3----|--1----1--1----1--1----|--6------5------6/---| 
-----------------------|-----------------------|---------------------| 
 
 
                                                                          
------------------------|-----------------------|-----------------------| 
------------------------|-----------------------|-----------------------| 
------------------------|-----------------------|-----------------------| 
-------5/-7--5----------|------3/-5--3----------|------1/-3--1----------| 
------------------5-----|-----------------5-----|-----------------3-----| 
--3------------------3--|--------------------3--|--------------------3--| 
 
 
                                                                           
-------------------------|-----------------------|-----------------------| 
-------------------------|-----------------------|-----------------------| 
-------------------------|-----------------------|-----------------------| 
----1--1--1--1p-0--------|------5/-7--5----------|------3/-5--3----------| 
-------------------3-----|-----------------5-----|-----------------5-----| 
----------------------3--|--------------------3--|--------------------3--| 
 
 
                                                                           
-----------------------|-------------------------|-----------------------| 
-----------------------|-------------------------|-----------------------| 
-----------------------|-------------------------|-----------------------| 
------1/-3--1----------|----1--1--1--1p-0--------|------5/-7--5----------| 
-----------------3-----|-------------------3-----|-----------------5-----| 
--------------------3--|----------------------3--|--------------------3--| 
 
 
                                                                           
-----------------------|-----------------------|-------------------------| 
-----------------------|-----------------------|-------------------------| 
-----------------------|-----------------------|-------------------------| 
------3/-5--3----------|------1/-3--1----------|----1--1--1--1p-0--------| 
-----------------5-----|-----------------3-----|-------------------3-----| 
--------------------3--|--------------------3--|----------------------3--| 
 
 
                                                                         
-----------------------|-----------------------|-----------------------| 
-----------------------|-----------------------|-----------------------| 
-----------------------|-----------------------|-----------------------| 
------5/-7--5----------|------3/-5--3----------|------1/-3--1----------| 
-----------------5-----|-----------------5-----|-----------------3-----| 
--------------------3--|--------------------3--|--------------------3--| 
 
 
                                                                  
-------------------------|-------------------|------------------| 
-------------------------|-------------------|------------------| 
-------------------------|-------------------|------------------| 
----1--1--1--1p-0--------|--3----------------|------------------| 
-------------------3-----|--3----------------|------------------| 
----------------------3--|--1----------------|------------------| 
 
 
                                                                               
-------------------|------------------|-------------------|------------------| 
-------------------|------------------|-------------------|------------------| 
--0----------------|------------------|-------------------|------------------| 
--5----------------|------------------|--3----------------|------------------| 
--5----------------|------------------|--3----------------|------------------| 
--3----------------|------------------|--1----------------|------------------| 
 
 
                                                                               
-------------------|------------------|-------------------|------------------| 
-------------------|------------------|-------------------|------------------| 
--0----------------|------------------|-------------------|------------------| 
--5----------------|------------------|--3----------------|------------------| 
--5----------------|------------------|--3----------------|------------------| 
--3----------------|------------------|--1----------------|------------------| 
 
 
                                                                               
-------------------|------------------|-------------------|------------------| 
-------------------|------------------|-------------------|------------------| 
--0----------------|------------------|-------------------|------------------| 
--5----------------|------------------|--3----------------|------------------| 
--5----------------|------------------|--3----------------|------------------| 
--3----------------|------------------|--1----------------|------------------| 
 
 
                                                             
-------------------|------------------|--------------------| 
-------------------|------------------|--------------------| 
--0----------------|------------------|--------------------| 
--5----------------|------------------|--3-----------------| 
--5----------------|------------------|--1------3----------| 
--3----------------|------------------|---------1----------| 
 
 
                                                               
--------------------|---------------------|------------------| 
--------------------|---------------------|------------------| 
--------------------|---------------------|------------------| 
--5-----------------|--3------------------|------------------| 
--3------5----------|--1------3------5----|------------------| 
---------3----------|---------1------3----|------------------| 
 
 
                                                                 
--------------------|--------------------|---------------------| 
--------------------|--------------------|---------------------| 
--------------------|--------------------|---------------------| 
--3-----------------|--5-----------------|--3------5------7----| 
--1------3----------|--3------5----------|--1------3------5----| 
---------1----------|---------3----------|---------------------| 
 
 
                                                              
------------------|-------------------|---------------------| 
------------------|-------------------|---------------------| 
------------------|-------------------|---------------------| 
------------------|--8----------------|--10-----------------| 
------------------|--6----------------|--8------------------| 
------------------|-------------------|------------------3--| 
 
 
                                                                           
-----------------------|-------------------------|-----------------------| 
-----------------------|-------------------------|-----------------------| 
-----------------------|-------------------------|-----------------------| 
------5p-0--0----1p-0--|--3p-0--1p-0--0----0-----|------5p-0--0----1p-0--| 
-----------------------|-------------------------|-----------------------| 
-----------------------|----------------------3--|-----------------------| 
 
 
                                                                            
------------------------|-----------------------|-------------------------| 
------------------------|-----------------------|-------------------------| 
------------------------|-----------------------|-------------------------| 
--3p-0--1p-0------------|------5p-0--0----1p-0--|--3p-0--1p-0--0----0-----| 
--------------3---------|-----------------------|-------------------------| 
---------------------3--|-----------------------|----------------------3--| 
 
 
                                                                             
-----------------------|--------------------------|------------------------| 
-----------------------|--------------------------|------------------------| 
-----------------------|--------------------------|------------------------| 
------5p-0--0----1p-0--|--3p-0--1p-0--------------|-------5p-0--0----1p-0--| 
-----------------------|--------------3p-1p-0-----|------------------------| 
-----------------------|-----------------------3--|--3---------------------| 
 
 
                                                                            
-------------------------|-----------------------|------------------------| 
-------------------------|-----------------------|------------------------| 
-------------------------|-----------------------|------------------------| 
--3p-0--1p-0--0----0-----|------5p-0--0----1p-0--|--3p-0--1p-0------------| 
-------------------------|-----------------------|--------------3---------| 
----------------------3--|-----------------------|---------------------3--| 
 
 
                                                                           
-----------------------|-------------------------|-----------------------| 
-----------------------|-------------------------|-----------------------| 
-----------------------|-------------------------|-----------------------| 
------5p-0--0----1p-0--|--3p-0--1p-0--0----0-----|------5p-0--0----1p-0--| 
-----------------------|-------------------------|-----------------------| 
-----------------------|----------------------3--|-----------------------| 
 
 
                                                                              
--------------------------|------------------------|------------------------| 
--------------------------|------------------------|------------------------| 
--------------------------|------------------------|------------------------| 
--3p-0--1p-0--------------|------------------------|------------------------| 
--------------3p-1p-0-----|------------------------|------------------------| 
-----------------------3--|--3----3--3----3--3--3--|--3----3--3----3--3--3--| 
 
 
                                                                         
------------------------|---------------------|------------------------| 
------------------------|---------------------|------------------------| 
------------------------|---------------------|------------------------| 
------------------------|--7------8------8/---|------------------------| 
------------------------|--5------6------6/---|------------------------| 
--3----3--3----3--3--3--|---------------------|--3----3--3----3--3--3--| 
 
 
                                                                    
------------------------|--------------------|--------------------| 
------------------------|--------------------|--------------------| 
------------------------|--------------------|--------------------| 
------------------------|--3------5----------|--8------8----------| 
------------------------|--1------3----------|--6------5----------| 
--3----3--3----3--3--3--|--------------------|--------------------| 
 
 
                                                                            
------------------------|------------------------|------------------------| 
------------------------|------------------------|------------------------| 
------------------------|------------------------|------------------------| 
------------------------|------------------------|------------------------| 
------------------------|------------------------|------------------------| 
--3----3--3----3--3--3--|--3----3--3----3--3--3--|--3----3--3----3--3--3--| 
 
 
                                                                         
---------------------|------------------------|------------------------| 
---------------------|------------------------|------------------------| 
---------------------|------------------------|------------------------| 
--7------8------8/---|------------------------|------------------------| 
--5------6------6/---|------------------------|------------------------| 
---------------------|--3----3--3----3--3--3--|--3----3--3----3--3--3--| 
 
 
                                                                     
--------------------|----------------------|-----------------------| 
--------------------|----------------------|-----------------------| 
--------------------|----------------------|-----------------------| 
--3------5----------|--8------8------------|--5----5--5----5--5----| 
--1------3----------|--6------5------3--1--|--3----3--3----3--3----| 
--------------------|----------------------|-----------------------| 
 
 
                                                                         
-----------------------|-----------------------|-----------------------| 
-----------------------|-----------------------|-----------------------| 
-----------------------|-----------------------|-----------------------| 
--5----5--5----5--5----|--3----3--3----3--3----|-----------------------| 
--3----3--3----3--3----|--1----1--1----1--1----|--3----3--3----3--3----| 
-----------------------|-----------------------|--1----1--1----1--1----| 
 
 
                                                                         
-----------------------|-----------------------|-----------------------| 
-----------------------|-----------------------|-----------------------| 
-----------------------|-----------------------|-----------------------| 
--5----5--5----5--5----|--5----5--5----5--5----|--3----3--3----3--3----| 
--3----3--3----3--3----|--3----3--3----3--3----|--1----1--1----1--1----| 
-----------------------|-----------------------|-----------------------| 
 
 
                                                                       
---------------------|-----------------------|-----------------------| 
---------------------|-----------------------|-----------------------| 
---------------------|-----------------------|-----------------------| 
--8------8------8/---|--5----5--5----5--5----|--5----5--5----5--5----| 
--6------5------6/---|--3----3--3----3--3----|--3----3--3----3--3----| 
---------------------|-----------------------|-----------------------| 
 
 
                                                                         
-----------------------|-----------------------|-----------------------| 
-----------------------|-----------------------|-----------------------| 
-----------------------|-----------------------|-----------------------| 
--3----3--3----3--3----|-----------------------|--5----5--5----5--5----| 
--1----1--1----1--1----|--3----3--3----3--3----|--3----3--3----3--3----| 
-----------------------|--1----1--1----1--1----|-----------------------| 
 
 
                                                                       
-----------------------|-----------------------|---------------------| 
-----------------------|-----------------------|---------------------| 
-----------------------|-----------------------|---------------------| 
--5----5--5----5--5----|--3----3--3----3--3----|--8------8------8/---| 
--3----3--3----3--3----|--1----1--1----1--1----|--6------5------6/---| 
-----------------------|-----------------------|---------------------| 
 
 
                                                                          
------------------------|-----------------------|-----------------------| 
------------------------|-----------------------|-----------------------| 
------------------------|-----------------------|-----------------------| 
-------5/-7--5----------|------3/-5--3----------|------1/-3--1----------| 
------------------5-----|-----------------5-----|-----------------3-----| 
--3------------------3--|--------------------3--|--------------------3--| 
 
 
                                                                           
-------------------------|-----------------------|-----------------------| 
-------------------------|-----------------------|-----------------------| 
-------------------------|-----------------------|-----------------------| 
----1--1--1--1p-0--------|------5/-7--5----------|------3/-5--3----------| 
-------------------3-----|-----------------5-----|-----------------5-----| 
----------------------3--|--------------------3--|--------------------3--| 
 
 
                                                                           
-----------------------|-------------------------|-----------------------| 
-----------------------|-------------------------|-----------------------| 
-----------------------|-------------------------|-----------------------| 
------1/-3--1----------|----1--1--1--1p-0--------|------5/-7--5----------| 
-----------------3-----|-------------------3-----|-----------------5-----| 
--------------------3--|----------------------3--|--------------------3--| 
 
 
                                                                           
-----------------------|-----------------------|-------------------------| 
-----------------------|-----------------------|-------------------------| 
-----------------------|-----------------------|-------------------------| 
------3/-5--3----------|------1/-3--1----------|----1--1--1--1p-0--------| 
-----------------5-----|-----------------3-----|-------------------3-----| 
--------------------3--|--------------------3--|----------------------3--| 
 
 
                                                                         
-----------------------|-----------------------|-----------------------| 
-----------------------|-----------------------|-----------------------| 
-----------------------|-----------------------|-----------------------| 
------5/-7--5----------|------3/-5--3----------|------1/-3--1----------| 
-----------------5-----|-----------------5-----|-----------------3-----| 
--------------------3--|--------------------3--|--------------------3--| 
 
 
                                                                     
-------------------------|--------------------|--------------------| 
-------------------------|--------------------|--------------------| 
-------------------------|--10~---------------|----------------10--| 
----1--1--1--1p-0--------|--------------------|--------------------| 
-------------------3-----|--------------------|--------------------| 
----------------------3--|--------------------|--------------------| 
 
 
                                                  
----------8-------------|-----------------------| 
-------------8------11b-|------------11----10p8/| 
--10b-------------------|-----------------------| 
------------------------|-----------------------| 
------------------------|-----------------------| 
------------------------|-----------------------| 
 
 
                                                                   
---------------------------------|-------------------------------| 
--7--8p-7h-8--10p-8p-7--8--7h-8--|--11p-8/-7--8--7--7h-8--8-8p7--| 
---------------------------------|-------------------------------| 
---------------------------------|-------------------------------| 
---------------------------------|-------------------------------| 
---------------------------------|-------------------------------| 
 
 
                                                         
---------------------------------|---------------------| 
---------------------------------|---------------------| 
--10p8-----8------8--10p8-7------|--7~-----------8--7--| 
-------10-----10-------------10--|---------------------| 
---------------------------------|---------------------| 
---------------------------------|---------------------| 
 
 
                                                                         
-----------------------------------|-----------------------------------| 
-----------------------------------|-----------------------------------| 
--8p-7------7~-----7h8p7----7------|--7h8p7----7------7h10p7----7------| 
--------10-----10--------10----10--|--------10----10---------10----10--| 
-----------------------------------|-----------------------------------| 
-----------------------------------|-----------------------------------| 
 
 
                                                         
-----------------------------|--8-----8--11b-------11b-| 
-----------------------------|-----8-------------------| 
--7h8p7----7h8h10--10b-------|-------------------------| 
--------10-------------------|-------------------------| 
-----------------------------|-------------------------| 
-----------------------------|-------------------------| 
 
 
                                                         
------11----10----8-----8-----|--------------------13b-| 
---------------------8-----8--|--11b---11b-------------| 
------------------------------|------------------------| 
------------------------------|------------------------| 
------------------------------|------------------------| 
------------------------------|------------------------| 
 
 
                                                                                 
------13--11/-10--11p-10------|--10----------------------|---------------------| 
--------------------------11--|------11------------------|---------------------| 
------------------------------|----------10~-------10/---|---------------------| 
------------------------------|--------------------------|--7-------------7----| 
------------------------------|--------------------------|--5------5------5----| 
------------------------------|--------------------------|---------3-----------| 
 
 
                                                                    
---------------------|---------------------|----------------------| 
---------------------|---------------------|----------------------| 
---------------------|---------------------|----------------------| 
-----------7---------|--7-------------7----|------10----10--------| 
------5----5----5----|--5------5------5----|------8-----8---------| 
------3---------3----|---------3-----------|----------------------| 
 
 
                                                                   
---------------------|---------------------|---------------------| 
---------------------|---------------------|---------------------| 
---------------------|---------------------|---------------------| 
--7-------------7----|-----------7---------|--7-------------7----| 
--5------5------5----|------5----5----5----|--5------5------5----| 
---------3-----------|------3---------3----|---------3-----------| 
 
 
                                                                  
--------------------|---------------------|---------------------| 
--------------------|---------------------|---------------------| 
--------------------|---------------------|---------------------| 
------5----3--------|--7-------------7----|-----------7---------| 
------3----1--------|--5------5------5----|------5----5----5----| 
--------------------|---------3-----------|------3---------3----| 
 
 
                                                                    
---------------------|----------------------|---------------------| 
---------------------|----------------------|---------------------| 
---------------------|----------------------|---------------------| 
--7-------------7----|------10----10--------|--7-------------7----| 
--5------5------5----|------8-----8---------|--5------5------5----| 
---------3-----------|----------------------|---------3-----------| 
 
 
                                                                  
---------------------|---------------------|--------------------| 
---------------------|---------------------|--------------------| 
---------------------|---------------------|--------------------| 
-----------7---------|--7-------------7----|------5----3--------| 
------5----5----5----|--5------5------5----|------3----1--------| 
------3---------3----|---------3-----------|--------------------| 
 
 
                                                                    
------------------|-----------------------|-----------------------| 
------------------|-----------------------|-----------------------| 
------------------|-----------------------|-----------------------| 
------------------|--5----5--5----5--5----|--5----5--5----5--5----| 
------------------|--3----3--3----3--3----|--3----3--3----3--3----| 
------------------|-----------------------|-----------------------| 
 
 
                                                                         
-----------------------|-----------------------|-----------------------| 
-----------------------|-----------------------|-----------------------| 
-----------------------|-----------------------|-----------------------| 
--3----3--3----3--3----|-----------------------|--5----5--5----5--5----| 
--1----1--1----1--1----|--3----3--3----3--3----|--3----3--3----3--3----| 
-----------------------|--1----1--1----1--1----|-----------------------| 
 
 
                                                                       
-----------------------|-----------------------|---------------------| 
-----------------------|-----------------------|---------------------| 
-----------------------|-----------------------|---------------------| 
--5----5--5----5--5----|--3----3--3----3--3----|--8------8------8/---| 
--3----3--3----3--3----|--1----1--1----1--1----|--6------5------6/---| 
-----------------------|-----------------------|---------------------| 
 
 
                                                                         
-----------------------|-----------------------|-----------------------| 
-----------------------|-----------------------|-----------------------| 
-----------------------|-----------------------|-----------------------| 
--5----5--5----5--5----|--5----5--5----5--5----|--3----3--3----3--3----| 
--3----3--3----3--3----|--3----3--3----3--3----|--1----1--1----1--1----| 
-----------------------|-----------------------|-----------------------| 
 
 
                                                                         
-----------------------|-----------------------|-----------------------| 
-----------------------|-----------------------|-----------------------| 
-----------------------|-----------------------|-----------------------| 
-----------------------|--5----5--5----5--5----|--5----5--5----5--5----| 
--3----3--3----3--3----|--3----3--3----3--3----|--3----3--3----3--3----| 
--1----1--1----1--1----|-----------------------|-----------------------| 
 
 
                                                                        
-----------------------|---------------------|------------------------| 
-----------------------|---------------------|------------------------| 
-----------------------|---------------------|------------------------| 
--3----3--3----3--3----|--8------8------8/---|-------5/-7--5----------| 
--1----1--1----1--1----|--6------5------6/---|------------------5-----| 
-----------------------|---------------------|--3------------------3--| 
 
 
                                                                           
-----------------------|-----------------------|-------------------------| 
-----------------------|-----------------------|-------------------------| 
-----------------------|-----------------------|-------------------------| 
------3/-5--3----------|------1/-3--1----------|----1--1--1--1p-0--------| 
-----------------5-----|-----------------3-----|-------------------3-----| 
--------------------3--|--------------------3--|----------------------3--| 
 
 
                                                                         
-----------------------|-----------------------|-----------------------| 
-----------------------|-----------------------|-----------------------| 
-----------------------|-----------------------|-----------------------| 
------5/-7--5----------|------3/-5--3----------|------1/-3--1----------| 
-----------------5-----|-----------------5-----|-----------------3-----| 
--------------------3--|--------------------3--|--------------------3--| 
 
 
                                                                           
-------------------------|-----------------------|-----------------------| 
-------------------------|-----------------------|-----------------------| 
-------------------------|-----------------------|-----------------------| 
----1--1--1--1p-0--------|------5/-7--5----------|------3/-5--3----------| 
-------------------3-----|-----------------5-----|-----------------5-----| 
----------------------3--|--------------------3--|--------------------3--| 
 
 
                                                                           
-----------------------|-------------------------|-----------------------| 
-----------------------|-------------------------|-----------------------| 
-----------------------|-------------------------|-----------------------| 
------1/-3--1----------|----1--1--1--1p-0--------|------5/-7--5----------| 
-----------------3-----|-------------------3-----|-----------------5-----| 
--------------------3--|----------------------3--|--------------------3--| 
 
 
                                                                           
-----------------------|-----------------------|-------------------------| 
-----------------------|-----------------------|-------------------------| 
-----------------------|-----------------------|-------------------------| 
------3/-5--3----------|------1/-3--1----------|----1--1--1--1p-0--------| 
-----------------5-----|-----------------3-----|-------------------3-----| 
--------------------3--|--------------------3--|----------------------3--| 
 
 
                       
--------------------|| 
--------------------|| 
--7----7/-----------|| 
--5----5/-----------|| 
--------------------|| 
--3----3/-----------|| 
 
 
 

	  

Search Paypal
auto scroll beats size up size down change color hide chords drawings
tab show chords e-chords YouTube Clip e-chords hide all tabs e-chords go to top tab