Iron Maiden

home > Iron Maiden

The thin line between love and hate (ver. 2) Tab

Iron Maiden

Difficulty: nolevelnolevel

by wickedman

tuner correct add songbook print version text version save to e-mail
chordsukulelecavacokeyboardtabbassdrumsharmonicsflute Guitar Pro
chords

The thin line between love and hate (ver. 2)

  		THE THIN LINE BETWEEN LOVE AND HATE 
Iron Maiden (Álbum BRAVE NEW WORLD) 
 
Introdução - Riff 1 
 
    (Guitarra 1)    
||-----------------------------------|----------------------------------| 
||o----------------------------------|----------------------------------| 
||-----------------------------------|----------------------------------| 
||-----------------------------------|----------------------------------| 
||o------4-4-0-0-2-2-----4-4-0-0-----|-----2-2-----0-0-----2-2----------| 
||---2-2-------------2-2---------4-4-|-0-0-----3-3-----0-0-----3-3-0-0--| 
| 
| 
|   (Guitarra 2 - toca os acordes) 
|    F#5                               E5 
||-----------------------------------|----------------------------------| 
||o----------------------------------|----------------------------------| 
||-----------------------------------|----------------------------------| 
||---4-------------------------------|-2--------------------------------| 
||o--4-------------------------------|-2--------------------------------| 
||---2-------------------------------|-0--------------------------------| 
 
   B5                                G5 
|----------------------------------|------------------------------------|| 
|----------------------------------|-----------------------------------o|| 
|----------------------------------|------------------------------------|| 
|------4-4-0-0-2-2-----4-4-0-0-----|------------------------------------|| 
|--2-2-------------2-2---------4-4-|-----5-5-2-2---------5-5-2-2-------o|| 
|----------------------------------|-3-3---------5-5-3-3---------3-3----|| 
| 
| 
|  B5                                G5              D5      B5 
|----------------------------------|------------------------------------|| 
|----------------------------------|-----------------------------------o|| 
|--4-------------------------------|-----------------7-------4----------|| 
|--4-------------------------------|-5---------------7-------4----------|| 
|--2-------------------------------|-5---------------5-------2---------o|| 
|----------------------------------|-3----------------------------------|| 
 
 
 
Introdução - Riff 2 (Mais rápido) 
(Guitarras 1 e 2) 
 
     F#5                                  B5 
||-------------------|----------------|-----------------|------------------|| 
||o------------------|----------------|-----------------|-----------------o|| 
||-------------------|----------------|-2/4-4-4---4-4-4-|-4-4-4-4----------|| 
||---2/4-4-4---4-4-4-|-4-4-4-4--------|-2/4-4-4---4-4-4-|-4-4-4-4----------|| 
||o--2/4-4-4---4-4-4-|-4-4-4-4--------|-0/2-2-2---2-2-2-|-2-2-2-2-3-2-0---o|| 
||---0/2-2-2---2-2-2-|-2-2-2-2-3-2-0--|-----------------|------------------|| 
 
 
 
Riff 3 - Tocado durante o 1º e 3º versos 
 
   F#5         B5                    F#5         B5 
|------------------|---------------|-----------------|---------------| 
|------------------|---------------|-----------------|---------------| 
|--------------4-4-|-4-4-4-4-4--4--|-------------4-4-|-4-4-4-4-4--4--| 
|--4-4-4-4-4-4-4-4-|-4-4-4-4-4--4--|-4-4-4-4-4-4-4-4-|-4-4-4-4-4--4--| 
|--4-4-4-4-4-4-2-2-|-2-2-2-2-2--2--|-4-4-4-4-4-4-2-2-|-2-2-2-2-2--2--| 
|--2-2-2-2-2-2-----|---------------|-2-2-2-2-2-2-----|---------------| 
 
 
   F#5         B5                    D5  Asus4  E5 
|------------------|---------------|------------0--|-0--0--0--0--0---0--| 
|------------------|---------------|-3---3------0--|-0--0--0--0--0---0--| 
|--------------4-4-|-4-4-4-4-4--4--|-2---2---------|--------------------| 
|--4-4-4-4-4-4-4-4-|-4-4-4-4-4--4--|-0---2------2--|-2--2--2--2--2---2--| 
|--4-4-4-4-4-4-2-2-|-2-2-2-2-2--2--|-----0------2--|-2--2--2--2--2---2--| 
|--2-2-2-2-2-2-----|---------------|------------0--|-0--0--0--0--0---0--| 
 
 
1º Verso: 
 
 
       F#5             B5 
When a person turns to wrong 
        F#5           B5 
Is it a want to be, belong? 
        F#5           B5 
Part of things at any cost 
        D5      Asus4    E5 
At what price a life  is lost  
 
        F#5           B5 
At what point do we begin 
         F#5             B5 
Fighter spirit a will to win 
         F#5           B5 
But what makes a man decide 
         D5       Asus4     E5 
Take the wrong or righteous road 
 
 
 
Riff 4 - Refrão 1 
 
    (Guitarra 1) 
|--------------------------|-------------------------|-------------------------|--------------------------| 
|--10-10-10-10-10-10-10-10-|-10-10-10-10-10-10-10-10-|-10-10-10-10-10-10--9--9-|-10-10-10-10-10-10-10-10--| 
|---9--9--9--9--9--9--9--9-|--9--9--9--9--9--9--9--9-|--9--9--9--9--9--9--9--9-|--9--9--9--9--9--9--9--9--| 
|--------------------------|-------------------------|-------------------------|--------------------------| 
|--------------------------|-------------------------|-------------------------|--------------------------| 
|--------------------------|-------------------------|-------------------------|--------------------------| 
| 
|    (Guitarra 2) 
|   F#5               D5                                A5                E5 
|--------------------------|-------------------------|-------------------------|--------------------------| 
|--------------------------|-------------------------|-------------------------|--------------------------| 
|---------------------7--7-|--7--7--7--7--7--7--7--7-|-------------------------|--------------------------| 
|---4--4--4--4--4--4--7--7-|--7--7--7--7--7--7--7--7-|--7--7--7--7--7--7--2--2-|--2--2--2--2--2--2--2--2--| 
|---4--4--4--4--4--4--5--5-|--5--5--5--5--5--5--5--5-|--7--7--7--7--7--7--2--2-|--2--2--2--2--2--2--2--2--| 
|---2--2--2--2--2--2-------|-------------------------|--5--5--5--5--5--5--0--0-|--0--0--0--0--0--0--0--0--| 
 
 
Refrão 1: 
 
 
F#5       D5                A5       E5 
There's a thin line between love and hate 
        F#5       D5 
Wider divide that you can see 
   A5        E5 
Between good and bad 
          F#5        D5                A5 
There's a grey place between black and white 
    E5            F#5      D5 
But everyone does have the right to 
           A5        E5 
Choose the path that he takes 
 
 
 
Riff 5 - Tocado apenas durante o 2º verso 
(Este riff é quase idêntico ao Riff 3, com uma variação no final) 
 
   F#5         B5                    F#5         B5 
|------------------|---------------|-----------------|---------------| 
|------------------|---------------|-----------------|---------------| 
|--------------4-4-|-4-4-4-4-4--4--|-------------4-4-|-4-4-4-4-4--4--| 
|--4-4-4-4-4-4-4-4-|-4-4-4-4-4--4--|-4-4-4-4-4-4-4-4-|-4-4-4-4-4--4--| 
|--4-4-4-4-4-4-2-2-|-2-2-2-2-2--2--|-4-4-4-4-4-4-2-2-|-2-2-2-2-2--2--| 
|--2-2-2-2-2-2-----|---------------|-2-2-2-2-2-2-----|---------------| 
 
 
   F#5         B5                    D5  A5     E5 
|------------------|---------------|---------------|--------------------| 
|------------------|---------------|-3----------5--|-5--5--5--5--5---5--| 
|--------------4-4-|-4-4-4-4-4--4--|-2---2------4--|-4--4--4--4--4---4--| 
|--4-4-4-4-4-4-4-4-|-4-4-4-4-4--4--|-0---2------2--|-2--2--2--2--2---2--| 
|--4-4-4-4-4-4-2-2-|-2-2-2-2-2--2--|-----0------2--|-2--2--2--2--2---2--| 
|--2-2-2-2-2-2-----|---------------|------------0--|-0--0--0--0--0---0--| 
 
 
2º Verso: 
 
 
       F#5             B5 
We all like to put the blame 
     F#5         B5 
On society these things 
         F#5             B5 
But what kind of good or bad 
      D5  A5     E5 
A new generation brings  
 
          F#5                  B5 
Sometimes takes just more than that 
      F#5             B5 
To survive be good at heart 
         F#5             B5 
There is evil in some of us 
          D5        A5    E5 
No matter what will never change 
 
 
 
Riff 6 - Para o Refrão 2 
 
   F#5         D5                      A5          E5 
|------------------|-----------------|-----------------|------------------| 
|------------------|-----------------|-----------------|------------------| 
|--------------7-7-|-7-7-7-7-7-7-7-7-|-2-2-2-2-2-2-----|------------------| 
|--4-4-4-4-4-4-7-7-|-7-7-7-7-7-7-7-7-|-2-2-2-2-2-2-2-2-|-2-2-2-2-2-2-2-2--| 
|--4-4-4-4-4-4-5-5-|-5-5-5-5-5-5-5-5-|-0-0-0-0-0-0-2-2-|-2-2-2-2-2-2-2-2--| 
|--2-2-2-2-2-2-----|-----------------|-------------0-0-|-0-0-0-0-0-0-0-0--| 
 
 
Refrão 2: 
 
 
F#5      D5 
I   will hope, 
   A5        E5 
my soul will fly 
   F#5      D5      A5   E5 
so I   will live fore____ver 
F#5        D5 
Heart will die, 
   A5        E5 
my soul will fly 
    F#5      D5      A5   E5 
and I   will live fore____ver 
 
 
 
Solo 1 - Os acordes são feitos pela outra guitarra 
 
   F#5                                                    B5 
|-------------------------|---14----------------------|-------------------------------| 
|--17b-----17b-----17b~---|-------14--17--14----------|-------------------------------| 
|-------------------------|-------------------17--16--|--16--14--16b--14~-------------| 
|-------------------------|---------------------------|-----------------------16--14--| 
|-------------------------|---------------------------|-------------------------------| 
|-------------------------|---------------------------|-------------------------------| 
 
 
                              F#5 
|----------------------------|----14--16---------17p-14------14--| 
|-----------------------17b--|------------17b-----------17b------| 
|------14b-------------------|-----------------------------------| 
|--16-------16---------------|-----------------------------------| 
|----------------------------|-----------------------------------| 
|----------------------------|-----------------------------------| 
 
 
                                               B5 
|--16--14h-16p-14------14-------14-------17b--|----17----16----14------14--------| 
|-----------------17b------17b------17b-------|--------------------17------17b~--| 
|---------------------------------------------|----------------------------------| 
|---------------------------------------------|----------------------------------| 
|---------------------------------------------|----------------------------------| 
|---------------------------------------------|----------------------------------| 
 
 
 
 
Verso 3: 
 
 
       F#5               B5 
Just a few small tears between 
        F#5           B5 
Someone happy and one sad 
       F#5               B5 
Just a thin line drawn between 
        D5     Asus4  E5 
Being a genius or   insane  
 
        F#5          B5 
At what age begin to learn 
         F#5             B5 
Of which way out we will turn 
          F#5              B5 
There's a long and winding road 
        D5       Asus4    E5 
And the trail is there to burn  
 
 
 
Refrão 1: 
 
 
F#5       D5                A5       E5 
There's a thin line between love and hate 
        F#5       D5 
Wider divide that you can see 
   A5        E5 
Between good and bad 
          F#5        D5                A5 
There's a grey place between black and white 
    E5            F#5      D5 
But everyone does have the right to 
           A5        E5 
Choose the path that he takes 
 
 
 
Solo 2 - Os acordes são feitos pela outra guitarra 
 
   F#5 
|-------------------------------|---------------------------------------------------| 
|--15br------14-15-14h15p14p-12-|-----12h14h15-14p12h14h15-14p12h14p12h14p12h14-14b-| 
|-------------------------------|--14-----------------------------------------------| 
|-------------------------------|---------------------------------------------------| 
|-------------------------------|---------------------------------------------------| 
|-------------------------------|---------------------------------------------------| 
 
 
   B5 
|-------------------------------------------|-----------------------| 
|-----14p12h14p-12-10h12p10h12p-10-9-9--10--|--10b------------14h15-| 
|-------------------------------------------|-----------------------| 
|-------------------------------------------|-----------------------| 
|-------------------------------------------|-----------------------| 
|-------------------------------------------|-----------------------| 
 
 
   F#5 
|--------------------------------------------------------------------------------| 
|--14h15p14h~15p~14~--13h~14p~13h~14-14~--12h~13p~12h~13p~12--11h~12p~11h~12p~11-| 
|--------------------------------------------------------------------------------| 
|--------------------------------------------------------------------------------| 
|--------------------------------------------------------------------------------| 
|--------------------------------------------------------------------------------| 
 
 
   
|-------------------------------------------| 
|--10h11p10-9h10p9--7h9h10p--9p7h9p7-9p7----| 
|----------------------------------------9--| 
|-------------------------------------------| 
|-------------------------------------------| 
|-------------------------------------------| 
 
 
   B5            
|---------------12h--14--16--17--17b--17b~--| 
|--12--14h--15------------------------------| 
|-------------------------------------------| 
|-------------------------------------------| 
|-------------------------------------------| 
|-------------------------------------------| 
 
 
 
Refrão 2 (2 vezes): 
 
 
F#5      D5 
I   will hope, 
   A5        E5 
my soul will fly 
   F#5      D5      A5   E5 
so I   will live fore____ver 
F#5        D5 
Heart will die, 
   A5        E5 
my soul will fly 
    F#5      D5      A5   E5 
and I   will live fore____ver 
 
 
 
Instrumental 
 
Riff 1A 
(Este riff é uma variação do Riff 1) 
 
  (Guitarra 1) 
|----------------------------------|----------------------------------| 
|----------------------------------|----------------------------------| 
|----------------------------------|----------------------------------| 
|----------------------------------|----------------------------------| 
|------4-4-0-0-2-2-----4-4-0-0-----|-----2-2-----0-0-----2-2----------| 
|--2-2-------------2-2---------4-4-|-0-0-----3-3-----0-0-----3-3-0-0--| 
| 
| (Guitarra 2) 
|  F#5                               E5 
|----------------------------------|----------------------------------| 
|----------------------------------|----------------------------------| 
|----------------------------------|----------------------------------| 
|----------------------------------|----------------------------------| 
|--4-4-4-4-4-4-4-4-4-4-4-4-4-4-4-4-|-2-2-2-2-2-2-2-2-2-2-2-2-2-2-2-2--| 
|--2-2-2-2-2-2-2-2-2-2-2-2-2-2-2-2-|-0-0-0-0-0-0-0-0-0-0-0-0-0-0-0-0--| 
 
 
 
|----------------------------------|----------------------------------| 
|----------------------------------|----------------------------------| 
|----------------------------------|----------------------------------| 
|------4-4-0-0-2-2-----4-4-0-0-----|----------------------------------| 
|--2-2-------------2-2---------4-4-|-----5-5-2-2---------5-5-2-2------| 
|----------------------------------|-3-3---------5-5-3-3---------3-3--| 
| 
|  B5                                G5              D5      B5 
|----------------------------------|----------------------------------| 
|----------------------------------|----------------------------------| 
|----------------------------------|----------------------------------| 
|--4-4-4-4-4-4-4-4-4-4-4-4-4-4-4-4-|-----------------7-7-7-7-4-4-4-4--| 
|--2-2-2-2-2-2-2-2-2-2-2-2-2-2-2-2-|-5-5-5-5-5-5-5-5-5-5-5-5-2-2-2-2--| 
|----------------------------------|-3-3-3-3-3-3-3-3------------------| 
 
 
 
Riff 1B 
 
  (Guitarra 1) 
|----------------------------------|----------------------------------| 
|----------------------------------|----------------------------------| 
|----------------6-7-9-7-6-7---9---|-7-------------6-7-9-7-6-7---9----| 
|--------------9-------------------|-------------9--------------------| 
|----------------------------------|----------------------------------| 
|----------------------------------|----------------------------------| 
| 
|  (Guitarra 2) 
|  F#5                               E5 
|----------------------------------|----------------------------------| 
|----------------------------------|----------------------------------| 
|----------------------------------|----------------------------------| 
|----------------------------------|----------------------------------| 
|--4-4-4-4-4-4-4-4-4-4-4-4-4-4-4-4-|-2-2-2-2-2-2-2-2-2-2-2-2-2-2-2-2--| 
|--2-2-2-2-2-2-2-2-2-2-2-2-2-2-2-2-|-0-0-0-0-0-0-0-0-0-0-0-0-0-0-0-0--| 
 
 
 
 
|----------------------------------|----------------------------------| 
|----------------------------------|-7--------------------------------| 
|--7-------------6-7-9-7-6-7---9---|---------------6-7-9-7-6-7---9----| 
|--------------9-------------------|-------------9--------------------| 
|----------------------------------|----------------------------------| 
|----------------------------------|----------------------------------| 
| 
|  B5                                G5              D5      B5 
|----------------------------------|----------------------------------| 
|----------------------------------|----------------------------------| 
|----------------------------------|----------------------------------| 
|--4-4-4-4-4-4-4-4-4-4-4-4-4-4-4-4-|-----------------7-7-7-7-4-4-4-4--| 
|--2-2-2-2-2-2-2-2-2-2-2-2-2-2-2-2-|-5-5-5-5-5-5-5-5-5-5-5-5-2-2-2-2--| 
|----------------------------------|-3-3-3-3-3-3-3-3------------------| 
 
 
 
  (Guitarra 1) 
|----------------------------------|----------------------------------| 
|----------------------------------|----------------------------------| 
|----------------6-7-9-7-6-7---9---|-7-------------6-7-9-7-6-7---9----| 
|--------------9-------------------|-------------9--------------------| 
|----------------------------------|----------------------------------| 
|----------------------------------|----------------------------------| 
| 
|  (Guitarra 2) 
|  F#5                               E5 
|----------------------------------|----------------------------------| 
|----------------------------------|----------------------------------| 
|----------------------------------|----------------------------------| 
|----------------------------------|----------------------------------| 
|--4-4-4-4-4-4-4-4-4-4-4-4-4-4-4-4-|-2-2-2-2-2-2-2-2-2-2-2-2-2-2-2-2--| 
|--2-2-2-2-2-2-2-2-2-2-2-2-2-2-2-2-|-0-0-0-0-0-0-0-0-0-0-0-0-0-0-0-0--| 
 
 
 
  (Guitarra 1) 
|----------------------------------|----------------------------------| 
|----------------------------------|-7--------------------------------| 
|--7-------------6-7-9-7-6-7---9---|---------------6-7-9-7-6-7---9----| 
|--------------9-------------------|-------------9--------------------| 
|----------------------------------|----------------------------------| 
|----------------------------------|----------------------------------| 
| 
|  (Guitarra 2) 
|  B5                                G5              D5      B5 
|----------------------------------|----------------------------------| 
|----------------------------------|----------------------------------| 
|----------------------------------|----------------------------------| 
|--4-4-4-4-4-4-4-4-4-4-4-4-4-4-4-4-|-----------------7-7-7-7-4-4-4-4--| 
|--2-2-2-2-2-2-2-2-2-2-2-2-2-2-2-2-|-5-5-5-5-5-5-5-5-5-5-5-5-2-2-2-2--| 
|----------------------------------|-3-3-3-3-3-3-3-3------------------| 
 
 
 
Riff 1C 
 
  (Guitarra 1) 
|------------5-5-5-5---------------|-----------5-5-5-5----------------| 
|--------------------8-7-5-7---8---|-7-----------------8-7-5-7---8----| 
|----------------------------------|----------------------------------| 
|----------------------------------|----------------------------------| 
|----------------------------------|----------------------------------| 
|----------------------------------|----------------------------------| 
| 
|  (Guitarra 2) 
|  F#5                               E5 
|----------------------------------|----------------------------------| 
|----------------------------------|----------------------------------| 
|----------------------------------|----------------------------------| 
|----------------------------------|----------------------------------| 
|--4-4-4-4-4-4-4-4-4-4-4-4-4-4-4-4-|-2-2-2-2-2-2-2-2-2-2-2-2-2-2-2-2--| 
|--2-2-2-2-2-2-2-2-2-2-2-2-2-2-2-2-|-0-0-0-0-0-0-0-0-0-0-0-0-0-0-0-0--| 
 
 
Atenção: aqui entra uma terceira guitarra para o solo antes do interlúdio. 
 
  (Guitarra 1) 
|------------5-5-5-5---------------|---------5-5-5-5------------------| 
|--7-----------------8-7-5-7---8---|-7---------------8-7-5-7-----8----| 
|----------------------------------|----------------------------------| 
|----------------------------------|----------------------------------| 
|----------------------------------|----------------------------------| 
|----------------------------------|----------------------------------| 
| 
|  (Guitarra 2) 
|  B5                                G5              D5      B5 
|----------------------------------|----------------------------------| 
|----------------------------------|----------------------------------| 
|----------------------------------|----------------------------------| 
|--4-4-4-4-4-4-4-4-4-4-4-4-4-4-4-4-|-----------------7-7-7-7-4-4-4-4--| 
|--2-2-2-2-2-2-2-2-2-2-2-2-2-2-2-2-|-5-5-5-5-5-5-5-5-5-5-5-5-2-2-2-2--| 
|----------------------------------|-3-3-3-3-3-3-3-3------------------| 
| 
|                                                         (Guitarra 3) 
|----------------------------------|----------------------------------| 
|----------------------------------|----------------------------------| 
|----------------------------------|---------------------------/16b18-| 
|----------------------------------|----------------------------------| 
|----------------------------------|----------------------------------| 
|----------------------------------|----------------------------------| 
 
 
 
Solo 3 - Sobre o Riff 1A, feito pelas duas outras guitarras. 
 
 
  F#5 
|-------------------------------------------------------| 
|----------------------14-15-17-17b19==(17)-(17)r-------| 
|-16b18-------------16----------------------------------| 
|-------------------------------------------------------| 
|-------------------------------------------------------| 
|-------------------------------------------------------| 
 
 
  E5 
|-------------------14-16-17b19==(17)r-----17b19--------| 
|-17b19-------------------------------------------------| 
|-------------------------------------------------------| 
|-------------------------------------------------------| 
|-------------------------------------------------------| 
|-------------------------------------------------------| 
 
 
  B5 
|-17b19-------------17--16h==17p=16---14-----------------------------| 
|------------------------------------------15-----------14h=15p==14--| 
|--------------------------------------------------------------------| 
|--------------------------------------------------------------------| 
|--------------------------------------------------------------------| 
|--------------------------------------------------------------------| 
 
 
   G5                               D5               B5 
|----------------------------------------------------14---16---17S==19----| 
|--12------------------------12-------14----------------------------------| 
|-----------------13----14------------------------------------------------| 
|-------------------------------------------------------------------------| 
|-------------------------------------------------------------------------| 
|-------------------------------------------------------------------------| 
 
 
  F#5 
|-19b21---------------19b21r==========(19)---17---------------------------| 
|-------------------------------------------------19----------------------| 
|-------------------------------------------------------------------------| 
|-------------------------------------------------------------------------| 
|-------------------------------------------------------------------------| 
|-------------------------------------------------------------------------| 
 
 
   E5 
|--16--------14-----------------------------------------------------------------------------| 
|-------17--------15---17----15p=14--15--------14---15p=14-------14---15---17b19====(17)----| 
|-----------------------------------------16----------------16------------------------------| 
|-------------------------------------------------------------------------------------------| 
|-------------------------------------------------------------------------------------------| 
|-------------------------------------------------------------------------------------------| 
 
 
  B5 
|-------------------------------------------------------------------------------------------| 
|-(17)------17r==17-------------------14------------------------------------------14---17---| 
|----------------------16pb18r==(16)------17--16p=14---16b18===(16)----(16)r\---------------| 
|-------------------------------------------------------------------------------------------| 
|-------------------------------------------------------------------------------------------| 
|-------------------------------------------------------------------------------------------| 
 
 
   G5                                             D5                  B5 
|--14---17---19b21========(19)r---19b21-----------19b21r======================(19)-------| 
|----------------------------------------------------------------------------------------| 
|----------------------------------------------------------------------------------------| 
|----------------------------------------------------------------------------------------| 
|----------------------------------------------------------------------------------------| 
|----------------------------------------------------------------------------------------| 
 
 
 
Interlúdio 
(Uma das partes mais bonitas da música. 
 Começa exatamente nos dois últimos compassos do solo 3) 
 
 
  (Guitarra 3 - fim do solo 3) 
|-17-------------------------|------------------------| 
|----19----------(19)--------|-(19)--(19)\------------| 
|----------------------------|------------------------| 
|----------------------------|------------------------| 
|----------------------------|------------------------| 
|----------------------------|------------------------| 
| 
| (Guitarra 2) 
|  F#m11                         Esus2(4) 
|----------^0----------------|--------------^0--------| 
|----------^0----------------|--------------^0--------| 
|----------^2----------------|--------------^2--------| 
|-------4--^4----------------|--------------^4--------| 
|----------------------------|---------2--------------| 
|--2-------------------------|---0--------------------| 
 
 
   (Guitarra 2) 
    F#m11                 Esus2(4) 
||--------^0------------|-------^0-----|| 
||o-------^0------------|-------^0----o|| 
||--------^2------------|-------^2-----|| 
||-----4--^4------------|-------^4-----|| 
||o---------------------|----2--------o|| 
||--2-------------------|-0------------|| 
 
 
 
A base para o restante da parte lenta é esta: 
 
   F#m11                      Esus2(4) 
|--------^0----------0------|-------^0---------0------------| 
|--------^0-------0----0----|-------^0-------0----0---------| 
|--------^2-----2--------2--|-------^2-----2----------2-----| 
|-----4--^4-----------------|-------^4------------------4---| 
|---------------------------|----2--------------------------| 
|--2------------------------|-0-----------------------------| 
 
 
Solo 4 
Nota: esse solo começa no segundo compasso da figura acima, 
no dedilhado do acorde Esus2(4). Ouça a música para pegar o 
tempo certo. 
 
                  F#m11            Esus2(4) 
|---------------|----------------|--------------------| 
|----9----10----|-/12------12h14p|=12-------10----9---| 
|---------------|----------------|--------------------| 
|---------------|----------------|--------------------| 
|---------------|----------------|--------------------| 
|---------------|----------------|--------------------| 
 
 
  F#m11                   Esus2(4) 
|-----------------------|--------------------| 
|-10--9-----------------|----------9----10---| 
|--------9--------------|--------------------| 
|-----------9-----9--11-|-9------------------| 
|-----------------------|--------------------| 
|-----------------------|--------------------| 
 
 
  F#m11            Esus2(4) 
|----------------|----------------------| 
|-/12------12h14p|=12---------10----9---| 
|----------------|----------------------| 
|----------------|----------------------| 
|----------------|----------------------| 
|----------------|----------------------| 
 
 
  F#m11                    Esus2(4) 
|------------------------------|------------------| 
|-10p=9------------------------|------------------| 
|--------9--------------9h=11p=|-9----------------| 
|-----------9------------------|------------------| 
|------------------------------|------------------| 
|------------------------------|------------------| 
 
 
 
E Bruce canta: 
 
           F#m11                 Esus2(4) 
|------------------^0--------|-------------^0--------| 
|------------------^0--------|-------------^0--------| 
|------------------^2--------|-------------^2--------| 
|---------------4--^4--------|-------------^4--------| 
|----------------------------|--------2--------------| 
|----------2-----------------|---0-------------------| 
  The thin line 
 
 
           F#m11                 Esus2(4) 
|------------------^0--------|-------------^0--------| 
|------------------^0--------|-------------^0--------| 
|------------------^2--------|-------------^2--------| 
|---------------4--^4--------|-------------^4--------| 
|----------------------------|--------2--------------| 
|----------2-----------------|---0-------------------| 
   between love     and hate 
 
 
 
Riff 7 
(Guitarras 1 e 2) 
 
     F#5                                  A5 
||-------------------------|--------------------------| 
||o------------------------|--------------------------| 
||-------------------------|--------------------------| 
||---4----4----4--4--4--4--|--4--4--4--4--7--7--7--7--| 
||o--4----4----4--4--4--4--|--4--4--4--4--7--7--7--7--| 
||---2----2----2--2--2--2--|--2--2--2--2--5--5--5--5--| 
 
 
   E5 
|-------------------------|---------------------------|| 
|-------------------------|--------------------------o|| 
|-------------------------|---------------------------|| 
|--2--2--2----2--2--2--2--|--2--2--2--2--2--2--2--2---|| 
|--2--2--2----2--2--2--2--|--2--2--2--2--2--2--2--2--o|| 
|--0--0--0----0--0--0--0--|--0--0--0--0--0--0--0--0---|| 
 
 
 
Solo 5 - sobre o riff 7 
Nota: começa na metade do último compasso do riff 7 
 
 
 
|--------------|---------------------------------------------14------------14h16p14-------------------| 
|--------------|----------------------------14-----------14------17b19==r------------17b19==r--17b19==| 
|--------14-16-|-b18r16p14--16-----14-------14---16b18------------------------------------------------| 
|----/16-------|---------------16------16-------------------------------------------------------------| 
|--------------|--------------------------------------------------------------------------------------| 
|--------------|--------------------------------------------------------------------------------------| 
 
     
|-----------14---16---17----17b19===========(17)r---17b19---17p16-------| 
|--(17)------------------------------------------------------------17---| 
|-----------------------------------------------------------------------| 
|-----------------------------------------------------------------------| 
|-----------------------------------------------------------------------| 
|-----------------------------------------------------------------------| 
 
 
|----------------------------------------------------------14-----------------------------| 
|-(17)s==15---14h15p14-------------------------14h15h17---------17b19---------14---16b17==| 
|-----------------------16--14h16p14s13h14h16---------------------------------14---16b17==| 
|-----------------------------------------------------------------------------------------| 
|-----------------------------------------------------------------------------------------| 
|-----------------------------------------------------------------------------------------| 
 
 
|---------------------------------------------------------------------------| 
|-(16)r==(16)---14-------------17b19====(17)r---17b19====(17)r--------------| 
|-(16)r==(16)---14--------14------------------------------------------------| 
|--------------------16-----------------------------------------------------| 
|---------------------------------------------------------------------------| 
|---------------------------------------------------------------------------| 
 
 
 
Riff 8 
Nota: este riff é tocado tendo uma variação do riff 7 como base (é só tocar F#5 em lugar de A5). 
 
   F#5                                   E5 
|---------------------------------------|-------------------------------------------| 
|--7-10-10-10-10S9-9-9--9S7-7-7-7S5-5-5-|--12-12-12-12S10-10-10-10S9-9-9-10p9-------| 
|---------------------------------------|-------------------------------------9-11--| 
|---------------------------------------|-------------------------------------------| 
|---------------------------------------|-------------------------------------------| 
|---------------------------------------|-------------------------------------------| 
 
 
     F#5                                   E5 
|---------------------------------------|-------------------------------------------| 
|----10-10-10-10S9-9-9--9s7-7-7-7s9-7s5-|--12-12-12-12S10-10-10-10S9-9-9-10p9-------| 
|---------------------------------------|-------------------------------------9-11--| 
|---------------------------------------|-------------------------------------------| 
|---------------------------------------|-------------------------------------------| 
|---------------------------------------|-------------------------------------------| 
 
 
 
Solo 6 - sobre o riff 7 
 
  
|-----------17-----------17-----------|---------14--16--17--19--| 
|--17h19--------17h19--------17h19----|-------------------------| 
|-------------------------------------|-------------------------| 
|-------------------------------------|-------------------------| 
|-------------------------------------|-------------------------| 
|-------------------------------------|-------------------------| 
 
 
|--17--19--19s21--------17h19--17--|--16--17--16-17-16----------| 
|----------------------------------|-------------------17-------| 
|----------------------------------|----------------------------| 
|----------------------------------|----------------------------| 
|----------------------------------|----------------------------| 
|----------------------------------|----------------------------| 
 
 
|----------17-----------17--17-14-17-14-|--17h19-----------------| 
|--17h19-------17h19--------------------|--------------------12--| 
|---------------------------------------|------------11--14------| 
|---------------------------------------|------------------------| 
|---------------------------------------|------------------------| 
|---------------------------------------|------------------------| 
 
 
|--------14------14----12------|------------------------------| 
|--14--------14------------14--|--12br----10------10----------| 
|------------------------------|--------------11--------11----| 
|------------------------------|------------------------------| 
|------------------------------|------------------------------| 
|------------------------------|------------------------------| 
 
 
 
Repete o Riff 8 
 
 
Riff 9 
(Guitarras 1 e 2) 
 
   F#5                                               E5 
||------------0----0--0--|---0--0----0--0--0--|--0---0--0---0--0--|--0--0----0--0--0--0---|| 
||o-----------0----0--0--|---0--0----0--0--0--|--0---0--0---0--0--|--0--0----0--0--0--0--o|| 
||------------2----2--2--|---2--2----2--2--2--|--2---1--1---1--1--|--1--1----1--1--1--1---|| 
||-----------------------|--------------------|------2--2---2--2--|--2--2----2--2--2--2---|| 
||o------4---------------|--------------------|------2--2---2--2--|--2--2----2--2--2--2--o|| 
||--2--------------------|--------------------|------0--0---0--0--|--0--0----0--0--0--0---|| 
 
 
 
Final 
Nota: Toque a metade do solo 4 por cima dessa base: 
 
Solo 4 
 
   F#m11             Esus2(4)             F#m11                Esus2(4) 
|-------^0--------|----------^0--------|----------^0--------|----------^0--------| 
|-------^0--------|----------^0--------|----------^0--------|----------^0--------| 
|-------^2--------|----------^2--------|----------^2--------|----------^2--------| 
|-------^4--------|----------^4--------|-------4--^4--------|-------4--^4--------| 
|-----------------|-------2------------|--------------------|--------------------| 
|--2--------------|--0-----------------|--2-----------------|--0-----------------| 
 
 
 
E Bruce finaliza: 
 
           F#m11                 Esus2(4)   E 
|------------------^0--------|-------------^0--------| 
|------------------^0--------|-------------^0--------| 
|------------------^2--------|--------2----^1--------| 
|---------------4--^4--------|-------------^2--------| 
|----------------------------|-----------------------| 
|----------2-----------------|---0-------------------| 
  The thin line 
 
 
           F#m11                 Esus2(4) 
|------------------^0--------|--------------^0--------| 
|------------------^0--------|--------------^0--------| 
|------------------^2--------|--------------^2--------| 
|---------------4--^4--------|--------------^4--------| 
|----------------------------|---------2--------------| 
|----------2-----------------|---0--------------------| 
   between love     and hate 
 
 
   F#m11 
|--------------0--------| 
|-----------0-----------| 
|--------2--------------| 
|-----4-----------------| 
|-----------------------| 
|--2--------------------|  FIM 
 
 
 
 
 
 
 
 
 
 
 
 
 
 
 
 
 

	  

Search Paypal
auto scroll beats size up size down change color hide chords drawings
tab show chords e-chords YouTube Clip e-chords hide all tabs e-chords go to top tab