Iron Maiden

home > Iron Maiden

Montse'gur Tab

Iron Maiden

Difficulty: nolevelnolevel

tuner correct add songbook print version text version save to e-mail
chordsukulelecavacokeyboardtabbassdrumsharmonicsflute Guitar Pro
chords

Montse'gur

  		 
Intro: 
 
e|-------------------------------------------------------------------------------------------- 
B|-------------------------------------------------------------------------------------------- 
G|-------------------------------------------------------------------------------------------- 
D|-------------------------------------------------------------------------------------------- 
A|-------------------0h2----------------------5-3-2-----------------------0h2----5-3-2-532---- 
E|-0-0-0-2-0-0-3-0-0--------0-0-0-2-0-0-3-0-0-----------0-0-0-2-0-0-3-0-0--------------------- 
 
Na 3ª e 4ª repeticao, entra a 2ª guitarra: 
 
e|---------------------------------------------------------------------------------------------- 
B|---------------------------------------------------------------------------------------------- 
G|---------------------------------------------------------------------------------------------- 
D|--------------------7h9----------------------12-10-9---------------------7h9----12-10-9-12109- 
A|-7-7-7-9-7-7-10-7-7-------7-7-7-9-7-7-10-7-7----------7-7-7-9-7-7-10-7-7---------------------- 
E|---------------------------------------------------------------------------------------------- 
  pm................. 
 
 
 
*****Verso: 
 
Parte 'a': 
Nesta parte, em cada power chord toque as cordas uma de cada vez, abafe as duas primeiras 
cordas de cada  e deixe soar a  
 
ultima nota de cada power chord. 
e|--------------------------------------------------- 
B|--------------------------------------------------- 
G|---------------5----------------------------------- 
D|---2---4---5--5----5---4---2----------------------- 
A|--2---4---5--3----5---4---2------------------------ 
E|-0---2---3-------3---2---0-------------------------  
I stand alone in this desolate space... 
 
Parte 'b': 
e|--------------------------------------------------- 
B|--------------------------------------------------- 
G|----------------5555-5555-7777-9---9-7------------- 
D|-2222-4444-5555-5555-5555-7777-9---9-7------------- 
A|-2222-4444-5555-3333-3333-5555-7---7-5------------- 
E|-0000-2222-3333------------------------------------ 
Centuries later I wonder why... 
 
 
*****Refrao: 
 
Guitarra base: 
 
1ª e 3ª vezes: 
e|------------------------------------ 
B|------------------------------------ 
G|-9---7---5-------------5---7---9---- 
D|-9---7---5-------------5---7---9---- 
A|-7---5---3-------------3---5---7---- 
E|------------------------------------ 
At the gates...		Blood on the stones... 
 
2ª e 4ª vezes: 
e|------------------------------------ 
B|------------------------------------ 
G|-9---7---5-------------5------------ 
D|-9---7---5-------------5---5---2---- 
A|-7---5---3-------------3---5---2---- 
E|---------------------------3---0---- 
At the gates...		Blood on the stones... 
 
2ª guitarra: 
 
1ª e 3ª vezes: 
e|---------------------------------------------------------------------------- 
B|-12-10-8-10-8-7-8-7--------------------8-7---10-8-7-12-8-------------------- 
G|-------------------------------------------9-------------------------------- 
D|--------------------10------------------------------------------------------ 
A|---------------------------------------------------------------------------- 
E|---------------------------------------------------------------------------- 
At the gates and the walls...		Blood on the stones of the citadel 
 
2ª e 4ª vezes: 
e|---------------------------------------------------------------------------- 
B|-12-10-8-10-8-7-8-7--------------------8-7---10-8-7-10---------------------- 
G|-------------------------------------------9-----------9-------------------- 
D|--------------------10------------------------------------------------------ 
A|---------------------------------------------------------------------------- 
E|---------------------------------------------------------------------------- 
At the gates and the walls...		Blood on the stones of the citadel 
 
 
*****Pos-refrao: 
 
Guitarra base: 
 
e-------------------------------------------------------- 
B-------------------------------------------------------- 
G-----4-2-----------------------7------------------------ 
D-2---4-2-----------------------7---5-2------------------ 
A-2---2-0-----------------------5---5-2------------------ 
E-0---------------------------------3-0------------------ 
As we kill them all so...	The innocents died for... 
 
2ª guitarra: 
 
e|---------------7-----------------------------5---------- 
B|---7----7-9-10---10-7------------5-----5-7-9---9-5------ 
G|-9--9-9------------------------7---7-7------------------ 
D|-------------------------------------------------------- 
A|-------------------------------------------------------- 
E|-------------------------------------------------------- 
As we kill them all so...	The innocents died for... 
 
 
*****Pos-solo: 
 
Guitarra base: 
e|--------------------- 
B|--------------------- 
G|-9----5---------7---- 
D|-9----5----5----7---- 
A|-7----3----5----5---- 
E|-----------3--------- 
 
Guitarra principal: 
 
Parte 'a': 
e|---------------------------------------------------------- 
B|---------7-----------------------------7--------8---10-7-- 
G|-7h9p7-9---9----5h7p5-5-7-5----7h9p7-9---9----9---9------- 
D|---------------------------------------------------------- 
A|---------------------------------------------------------- 
E|---------------------------------------------------------- 
 
Parte 'b': 
e|------------------------7--------------------------------- 
B|---------7----------------10-----------7--------8---10-7-- 
G|-7h9p7-9---9----7h9p7-9--------7h9p7-9---9----9---9------- 
D|---------------------------------------------------------- 
A|---------------------------------------------------------- 
E|---------------------------------------------------------- 
 
Parte 'b' (Harmonia para o dueto): 
e|-----------------------------------10---------------------------------------------- 
B|-------------10-----------------------13-----------------10-----------12----------- 
G|-11h12p11-12----12-----11h12p11-12-----------11h12p11-12----12-----12----12-13-10-- 
D|----------------------------------------------------------------------------------- 
A|----------------------------------------------------------------------------------- 
E|----------------------------------------------------------------------------------- 
 
*********************************** 
 
A musica vai assim: 
 
-Intro;(4X) 
-Verso: 
    -Parte 'a'(2X) 
    -Parte 'b';(2X) 
-Refrao;(4X) 
-Pos-refrao;(4X) 
-Verso: 
    -Parte 'a'(2X) 
    -Parte 'b';(2X) 
-Refrao;(4X) 
-Pos-refrao;(4X) 
-Intro;(4X) 
-Solo(O que vem a seguir eh a base para o solo): 
	-Verso, Parte'a';(4X) 
-Refrao(Apenas o instrumental);(4X) 
-Pos-solo: 
     -Parte 'a';(1X) 
     -Parte 'b';(3X, com a harmonia na 2ª e 3ª vezes) 
-Pos-refrao;(8X) 
-Pos-refrao.(2X, somente a base) 
 
_______________________________________________________ 
Contribuição: Murilo Augusto Maciel([email protected]) 
	  

Search Paypal
auto scroll beats size up size down change color hide chords drawings
tab show chords e-chords YouTube Clip e-chords hide all tabs e-chords go to top tab