Iron Maiden

home > Iron Maiden

The evil that men do (solo) Tab

Iron Maiden

Difficulty: ExpertExpert

by victor%2Eh

tuner correct add songbook print version text version save to e-mail
chordsukulelecavacokeyboardtabbassdrumsharmonicsflute Guitar Pro
chords

The evil that men do (solo)

  		-14-----14-16-17-16-14-12-----16-12--12------------- 
-----------------------------------12--12----------- 
-----------------------------------------11--------- 
-------------------------------------------11------- 
---------------------------------------------------- 
---------------------------------------------------- 
 
----------------------------------------12----- 
--------------------------11--10--10--10------- 
---------12-11-10-12-11-10--11--11--11--------- 
-12-11-10-------------------------------------- 
----------------------------------------------- 
----------------------------------------------- 
 
------------------------12---------12---------12--------- 
-10-9-10-9----------10----12---10----12---10----12------- 
----------9~------11--11-----11--11-----11--11----11----- 
--------------------------------------------------------- 
--------------------------------------------------------- 
--------------------------------------------------------- 
 
-16-16--12--12-11---------------19b-19-17-16-17-16-14-16p14--------------- 
----------12-----12--12--------------------------------------------------- 
-------------------11--11----------------------------------18-16---------- 
-------------------------11-------------------------------------19-17~---- 
-------------------------------------------------------------------------- 
-------------------------------------------------------------------------- 
 
 
 

	  

Search Paypal
auto scroll beats size up size down change color hide chords drawings
tab show chords e-chords YouTube Clip e-chords hide all tabs e-chords go to top tab