Iron Maiden

home > Iron Maiden

Blood Brothers (ver. 2) Tab

Iron Maiden

Difficulty: nolevelnolevel

by wickedman

tuner correct add songbook print version text version save to e-mail
chordsukulelecavacokeyboardtabbassdrumsharmonicsflute Guitar Pro
chords

Blood Brothers (ver. 2)

  		BLOOD BROTHERS 
As recorded by Iron maiden (From the 2000 Album BRAVE NEW WORLD) 
Words and Music by Steve Harris 
Arranged by Steve Harris                                           
 
 
Intro. Gtr. 1 (clean) 
     E5              G5                C5              D5                E5              G5 
E||---------------------------------|---------------------------------|---------------------------------| 
B||o--------------------------------|---------------------------------|---------------------------------| 
G||---------------------------------|---------------------------------|---------------------------------| 
D||---------------------------------|-------5-----5---------7---------|---------------------------------| 
A||o------2-----2---------5---------|--3-------3-------5---------5----|-------2-----2---------5---------| 
E||--0-------0-------3---------3----|---------------------------------|--0-------0-------3---------3----| 
 
     C5              D5               
  |--------------------------------|| 
  |-------------------------------o||  
  |--------------------------------|| 
  |-------5-----5---------7--------|| 
  |--3-------3-------5------------o|| 
  |----------------------------3---|| 
 
 
Gtr. 2  
     E5             G5                 C5              D5                 
E||-----------------8--------7------|--7-------------------------------| 
B||-----------------------------10--|-----------10--8--10----8----7----| 
G||--9--------7--9------------------|----------------------------------| 
D||---------------------------------|----------------------------------| 
A||---------------------------------|----------------------------------| 
E||---------------------------------|----------------------------------| 
 
   E5             G5                 C5              D5                E5             G5                  
|-----------------8--------7------|--7------------------------------|-----------------8--------7------| 
|-----------------------------10--|-----------10--8--7----8----7----|-----------------------------10--| 
|--9--------7--9------------------|---------------------------------|--9--------7--9------------------| 
|---------------------------------|---------------------------------|---------------------------------| 
|---------------------------------|---------------------------------|---------------------------------| 
|---------------------------------|---------------------------------|---------------------------------| 
 
 
   C5              D5                 E5             G5                 C5              D5                
|--7-------------------------------|-----------------8--------7------|--7------------------------------| 
|-----------10--8--10----8----7----|-----------------------------10--|-----------10--8--7----8----7----| 
|----------------------------------|--9--------7--9------------------|---------------------------------| 
|----------------------------------|---------------------------------|---------------------------------| 
|----------------------------------|---------------------------------|---------------------------------| 
|----------------------------------|---------------------------------|---------------------------------| 
 
 
Verso: Segue o padrão indicado 
   E5               G5                  C5               D5          E5              G5               C5               D5 
|---------------------------------|-------------------------------|---------------------------------|---------------------------------| 
|---------------------------------|-------------------------------|---------------------------------|---------------------------------| 
|---------------------------------|-------------------------------|---------------------------------|---------------------------------| 
|-----9-----9---------------------|-----5-----5-------------------|-----9-----9---------------------|-----5-----5---------7-----7-----| 
|--7-----7-----7------5-----5-----|--3-----3-----3---5----5----5--|--7-----7-----7------5-----5-----|--3-----3-----3---5-----5-----5--| 
|------------------3-----3-----3--|-------------------------------|------------------3-----3-----3--|---------------------------------| 
 
 
E5              G5       C5               D5        E5                 G5            C5             D5 
  And if you're taking a walk through the garden of life   What do you think you'd expect you would see? 
E5            G5       C5           D5            E5                  G5      C5           D5 
  Just like a mirror reflecting the moves of your life     And in the river reflections of me 
 
 
    E5               G5                 C5               D5 
|------------------------------------|-----------------------------------| 
|------------------------------------|-----------------------------------| 
|*-----------------------------------|-----------------------------------| 
|*-----------------------------------|--5--5----5--5--5--7--7--7----7----| 
|---2--2----2--2--2--5--5--5----5----|--3--3----3--3--3--5--5--5----5----| 
|---0--0----0--0--0--3--3--3----3----|-----------------------------------| 
          Just for a second a           glimpse of my    father     I 
 
   E5               G5                 C5               D5                
|-----------------------------------|-----------------------------------| 
|-----------------------------------|-----------------------------------| 
|-----------------------------------|-----------------------------------| 
|-----------------------------------|--5--5----5--5--5--7--7--7----7----| 
|--2--2----2--2--2--5--5--5----5----|--3--3----3--3--3--5--5--5----5----| 
|--0--0----0--0--0--3--3--3----3----|-----------------------------------| 
   see     And in a movement he        beckons to       me 
 
   E5               G5                 C5               D5                E5               G5                 C5               D5 
|-----------------------------------|----------------------------------|-----------------------------------|--------------------------| 
|-----------------------------------|----------------------------------|-----------------------------------|--------------------------| 
|-----------------------------------|----------------------------------|-----------------------------------|-------------------7------| 
|-----------------------------------|--5--5----5--5--5--7--7--7----7---|-----------------------------------|--5--5----5--5--5--7------| 
|--2--2----2--2--2--5--5--5----5----|--3--3----3--3--3--5--5--5----5---|--2--2----2--2--2--5--5--5----5----|--3--3----3--3--3--5------| 
|--0--0----0--0--0--3--3--3----3----|----------------------------------|--0--0----0--0--0--3--3--3----3----|--------------------------| 
           And in a moment     the     memories    are all that    re____main    And all the wounds are    reopening         again     
 
 
Refrão:         E5           C5              G5           D5          (x4) 
    ||-----------------------------|-----------------------------|| 
    ||o----------------------------|----------------------------o|| 
    ||----------------5------------|---------------7-------------|| 
    ||---2------------5------------|--5------------7-------------|| 
    ||o--2------------3------------|--5------------5------------o|| 
    ||---0-------------------------|--3--------------------------|| 
We're blood    bro__________thers,                              We're blood 
 
 
    E5               G5                 C5               D5 
|------------------------------------|-----------------------------------| 
|------------------------------------|-----------------------------------| 
|*-----------------------------------|-----------------------------------| 
|*-----------------------------------|--5--5----5--5--5--7--7--7----7----| 
|---2--2----2--2--2--5--5--5----5----|--3--3----3--3--3--5--5--5----5----| 
|---0--0----0--0--0--3--3--3----3----|-----------------------------------| 
          And as you look       all    around at the     world in dis_____ 
  
   E5               G5                 C5               D5                
|-----------------------------------|-----------------------------------| 
|-----------------------------------|-----------------------------------| 
|-----------------------------------|-----------------------------------| 
|-----------------------------------|--5--5----5--5--5--7--7--7----7----| 
|--2--2----2--2--2--5--5--5----5----|--3--3----3--3--3--5--5--5----5----| 
|--0--0----0--0--0--3--3--3----3----|-----------------------------------| 
   may     What you see, do   you      think we have    learned? 
 
   E5               G5                 C5               D5             
|-----------------------------------|-----------------------------------| 
|-----------------------------------|-----------------------------------| 
|-----------------------------------|-----------------------------------| 
|-----------------------------------|--5--5----5--5--5--7--7--7----7----| 
|--2--2----2--2--2--5--5--5----5----|--3--3----3--3--3--5--5--5----5----| 
|--0--0----0--0--0--3--3--3----3----|-----------------------------------| 
         Not if you're taking  a       look at the      war torn   af____ 
 
 
   E5                G5                 C5               D5 
|------------------------------------|--------------------------------| 
|------------------------------------|--------------------------------| 
|------------------------------------|-------------------7------------| 
|------------------------------------|--5--5----5--5--5--7------------| 
|--2--2-----2--2--2--5--5--5----5----|--3--3----3--3--3--5------------| 
|--0--0-----0--0--0--3--3--3----3----|--------------------------------| 
 __fray   Out in the streets where the  babies are       burned    We're blood 
  
 
 
  
Refrão:         E5           C5              G5           D5          (x4) 
    ||-----------------------------|-----------------------------|| 
    ||o----------------------------|----------------------------o|| 
    ||----------------5------------|---------------7-------------|| 
    ||---2------------5------------|--5------------7-------------|| 
    ||o--2------------3------------|--5------------5------------o|| 
    ||---0-------------------------|--3--------------------------|| 
We're blood    bro__________thers,                              We're blood 
 
 
 
 
     E5             G5                 C5              D5                 
E||-----------------8--------7------|--7-------------------------------| 
B||-----------------------------10--|-----------10--8--10----8----7----| 
G||--9--------7--9------------------|----------------------------------| 
D||---------------------------------|----------------------------------| 
A||---------------------------------|----------------------------------| 
E||---------------------------------|----------------------------------| 
	 
   E5             G5                 C5              D5                 
|-----------------8--------7------|--7------------------------------|| 
|-----------------------------10--|-----------10--8--7----8----7---o|| 
|--9--------7--9------------------|---------------------------------|| 
|---------------------------------|---------------------------------|| 
|---------------------------------|--------------------------------o|| 
|---------------------------------|---------------------------------|| 
 
 
  
   E5               G5                  C5               D5 
|------------------------------------|------------------------------------| 
|------------------------------------|------------------------------------| 
|------------------------------------|------------------------------------| 
|------------------------------------|--5--5----5--5--5--7--7----7--7--7--| 
|--2--2----2--2--2--5--5----5--5--5--|--3--3----3--3--3--5--5----5--5--5--| 
|--0--0----0--0--0--3--3----3--3--3--|------------------------------------| 
 
           E5               G5                  D5 
|------------------------------------|--------------------------------| 
|------------------------------------|--------------------------------| 
|------------------------------------|-------------------7------------| 
|------------------------------------|--7--7----7--7--7--7------------| 
|--2--2----2--2--2--5--5----5--5--5--|--5--5----5--5--5--5------------| 
|--0--0----0--0--0--3--3----3--3--3--|--------------------------------| 
 
  
          E5           G5         C5           D5 
There are times when I feel I'm afraid for the world            (Acompanhamento pelo riff acima) 
          E5         G5           D5 
There are times I'm ashamed of us all 
            E5          G5       C5         D5 
When you're floating on all the emotion you feel 
      E5           G5           D5 
And reflecting the good and the bad  
E5               G5            C5        D5          E5 
    Will we ever know what the answer to life really is? 
               G5           D5 
Can you really tell me what life is? 
E5               G5              C5            D5          E5 
   Maybe all the things that you know that are precious to you 
                 G5           D5 
Could be swept away by fate's own hand  
 
 
 
Refrão 
            E5   C5    G5  D5 
We're blood bro__thers, 
            E5   C5    G5  D5 
We're blood bro__thers, 
            E5   C5    G5  D5 
We're blood bro__thers, 
            E5   C5    G5  D5 
We're blood bro__thers, 
 
 
     E5             G5                 C5              D5                 
E||-----------------8--------7------|--7-------------------------------| 
B||-----------------------------10--|-----------10--8--10----8----7----| 
G||--9--------7--9------------------|----------------------------------| 
D||---------------------------------|----------------------------------| 
A||---------------------------------|----------------------------------| 
E||---------------------------------|----------------------------------| 
	 
   E5             G5                 C5              D5                 
|-----------------8--------7------|--7-------------------------------|| 
|-----------------------------10--|-----------10--8--7----8----7----o|| 
|--9--------7--9------------------|----------------------------------|| 
|---------------------------------|----------------------------------|| 
|---------------------------------|---------------------------------o|| 
|---------------------------------|----------------------------------|| 
 
 
Solo sobre ritmo abaixo: 
 
     E5              G5                  C5              D5                (x4) 
||------------------------------------|------------------------------------|| 
||o-----------------------------------|-----------------------------------o|| 
||------------------------------------|------------------------------------|| 
||------------------------------------|--5--5----5----5--7--7--7----7--7---|| 
||o--2--2----2----2--5--5--5--5--5----|--3--3----3----3--5--5--5----5--5--o|| 
||---0--0----0----0--3--3--3--3--3----|------------------------------------|| 
 
 
Solo 1: Dave Murray 
 
|------------------------12--------------| 
|--12--------12--14--15--------15b-------| 
|----------------------------------------| 
|----------------------------------------| 
|----------------------------------------| 
|----------------------------------------| 
 
                                                                                                 
|------12--14--15--15b-15--14--12--14--12--14--|--12------12------------------------------------| 
|----------------------------------------------|------15------15r-----13-15-13-12-13------------| 
|----------------------------------------------|--------------------------------------14----12--| 
|----------------------------------------------|------------------------------------------------| 
|----------------------------------------------|------------------------------------------------| 
|----------------------------------------------|------------------------------------------------| 
 
                                                                                                         
|----------------------------------------------------|--------------------------------------------------| 
|--15--------12--15--12------------------------------|--------------------------12--12-15-12-12-12------| 
|------------------------14--12--14--12--------------|--------12--14--14r---14b---------------------15--| 
|----------------------------------------14--12--14--|----14--------------------------------------------| 
|----------------------------------------------------|--------------------------------------------------| 
|----------------------------------------------------|--------------------------------------------------| 
|--------------------------------------------|------------------------------------------------------| 
|--------------------------------------------|----------------------------------12--13--12------12--| 
|--14-12----12---14r-14--12----12------------|----------------------11--12--14--------------14------| 
|--------14-----------------14---------------|----------11--12--14----------------------------------| 
|--------------------------------------------|--12--14----------------------------------------------| 
|--------------------------------------------|------------------------------------------------------| 
 
                                                                            
|----------12--14--15----15b-----------|| 
|--13--15------------------------------|| 
|--------------------------------------|| 
|--------------------------------------|| 
|--------------------------------------|| 
|--------------------------------------|| 
 
 
Interlúdio 
 
Gtr. 2   E5                                      G5                C5                        1.  D5 
                                                                                             2.  A5        D5 
     Gtr. 1 
    ||-----------------------------|----------------------------|---------------------------||----------------------------|| 
    ||o-------12---10---12---------|--------13---12-----10------|-------12---10---12-------o||--------13---12-----10------|| 
    ||---9----4----2----4----------|--------5----4------2--12---|--9----4----2----4---------||--------5----4------2--12---|| 
    ||---2-------------------------|-----------------------5----|--2------------------------||-----------------------5----|| 
    ||o----------------------------|----------------------------|--------------------------o||----------------------------|| 
    ||-----------------------------|----------------------------|---------------------------||----------------------------|| 
     Gtr. 3 
 
    									 
       E5                                                                                         
     |---------------------|--------------------------| 
     |---------------------|--------------------------| 
     |--9-\----------------|-----2--2------2--2-------| 
     |--2------------------|--------------------------| 
     |---------------------|--------------------------| 
     |---------------------|--------------------------| 
 
 
 
   Gtr I 
    E5                      A5           G5            3x 
||------------------------|----------------------------|| 
||o-----------------------|-----10---10--8---8---8----o|| 
||------9---9------9---9--|-9-9----9-------9---9-------|| 
||--9-9---9----9-9---9----|----------------------------|| 
||o-----------------------|---------------------------o|| 
||------------------------|----------------------------|| 
|   Gtr II 
|                                                      3x 
||------------------------|----------------------------|| 
||o-----------------------|---------------------------o|| 
||------------------------|----------------------------|| 
||------------------------|-7----7----7--5---5---5-----|| 
||o-----7---7------7---7--|---------------------------o|| 
||--7-----7----7-----7----|----------------------------|| 
  C5         D5           C5         D5           E5 
|-----------------------|-----------------------|------------------------|-------------------------|| 
|-----------------------|-----------------------|------------------------|-------------------------|| 
|-5---5---5--7---7---7--|-5---5---5--7---7---7--|-----9---9-------9---9--|-----9---9------9---9----|| 
|---5---5------7---7----|---5---5------7---7----|-9-9---9---9-9-9---9----|-9-9---9----9-9---9------|| 
|-----------------------|-----------------------|------------------------|-------------------------|| 
|-----------------------|-----------------------|------------------------|-------------------------|| 
 
 
   Middle 
    E5                          G5                 A5                  E5 
||---------------7--------7---|-10--------7--------7----------------|--------------------------------7---| 
||o---7-8-7-8-10-----10-------|-------------10-------------10--8----|-10---10b12========(10)r---10-------| 
||--9-------------------------|-------------------------------------|------------------------------------| 
||----------------------------|-------------------------------------|------------------------------------| 
||o---------------------------|-------------------------------------|------------------------------------| 
||----------------------------|-------------------------------------|------------------------------------| 
| 
||----------------------------|-------------------------------------|------------------------------------| 
||o---------------------------|-------------------------------------|------------------------------------| 
||------9---9---------9---9---|-------12----12----------14----14----|-------9-------9------------9---9---| 
||----9---9----9---9----9---9-|----12----12----12----14----14----14-|----9--------9---9-------9----9---9-| 
||o-7------------7------------|-10----------------12----------------|--7------------------7--------------| 
||----------------------------|-------------------------------------|------------------------------------| 
 
 
  G5                A5              D5                             C5               D5 
|-10--------7-------7------------|------------------------------|--------------------------------| 
|-------------10----------10-8---|-10-----------(10)---8---10---|-10b12-----10-8---10-----8-7----| 
|--------------------------------|------------------------------|--------------------------------| 
|--------------------------------|------------------------------|--------------------------------| 
|--------------------------------|------------------------------|--------------------------------| 
|--------------------------------|------------------------------|--------------------------------| 
| 
|--------------------------------|------------------------------|--------------------------------| 
|--------------------------------|------------------------------|--------------------------------| 
|-------12----12--------2----2---|------7---7----------7----7---|---------5----5--------7---7----| 
|----12----12----12---2----2---2-|----7---7---7------7---7----7-|-------5----5---5----7---7---7--| 
|-10----------------0------------|--5-------------5-------------|--3----------------5------------| 
|--------------------------------|------------------------------|--------------------------------| 
 
 
 
  D5                          E5                        G5                 A5 
|---------------------------|-------------------------|---------------------------------------| 
|-----------------------7---|-8-----7-----7-----------|---------------------------------7-----| 
|-9-----------(9)---9-------|---------9---------9-7---|--9s====4----------(4)-----9-----------| 
|---------------------------|-------------------------|---------------------------------------| 
|---------------------------|-------------------------|---------------------------------------| 
|---------------------------|-------------------------|---------------------------------------| 
| 
|---------------------------|-------------------------|---------------------------------------| 
|---------------------------|-------------------------|---------------------------------------| 
|-----7---7---------7---7---|-----9---9-------9---9---|-------12----12-----------14----14-----| 
|---7---7---7-----7---7---7-|---9---9---9---9---9---9-|----12----12----12-----14----14----14--| 
|-5------------5------------|-7-----------7-----------|-10----------------12------------------| 
|---------------------------|-------------------------|---------------------------------------| 
 
 
 
  E5                        G5                 A5             D5                        C5          D5 
|-------------------------|---------------------------------|-------------------------|-----------------------------|| 
|-8-----7-----7-----------|-----------------------------7---|-8-----7-------------7---|----------------------------o|| 
|---------9---------9-7---|--9----------------(9)---9-------|---------9---7-----9-----|-9---------------------------|| 
|-------------------------|---------------------------------|-------------------------|-----------------------------|| 
|-------------------------|---------------------------------|-------------------------|----------------------------o|| 
|-------------------------|---------------------------------|-------------------------|-----------------------------|| 
|  
|-------------------------|---------------------------------|-------------------------|-----------------------------|| 
|-------------------------|---------------------------------|-------------------------|----------------------------o|| 
|-----9---9-------9---9---|-------12----12----------2---2---|-----7---7-------7---7---|-----5---5-------7---7-------|| 
|---9---9---9---9---9---9-|----12----12----12-----2---2---2-|---7---7---7---7---7---7-|---5---5---5---7---7---7-----|| 
|-7-----------7-----------|-10-----------------0------------|-5-----------5-----------|-3-----------5--------------o|| 
|-------------------------|---------------------------------|-------------------------|-----------------------------|| 
 
 
(Sobre Middle) 
 
E5          C5               A5           E5 
   When you think that we've used all our chances 
        C5             A5         D5 
And the chance to make everything right, 
        C5         D5          E5 
Keep on making the same old mistakes 
        C5          A5         E5 
Makes untipping the balance so easy 
           C5         A5           D5 
When we're living our lives on the edge 
      C5            A5          E5 
Say a prayer on the book of the dead  
 
 
 
    E5                          G5                 A5                  E5 
||---------------7--------7---|-10--------7--------7----------------|--------------------------------7---| 
||o---7-8-7-8-10-----10-------|-------------10-------------10--8----|-10---10b12========(10)r---10-------| 
||--9-------------------------|-------------------------------------|------------------------------------| 
||----------------------------|-------------------------------------|------------------------------------| 
||o---------------------------|-------------------------------------|------------------------------------| 
||----------------------------|-------------------------------------|------------------------------------| 
 
 
  G5                A5              D5                             C5               D5 
|-10--------7-------7------------|------------------------------|--------------------------------| 
|-------------10----------10-8---|-10-----------(10)---8---10---|-10b12-----10-8---10-----8-7----| 
|--------------------------------|------------------------------|--------------------------------| 
|--------------------------------|------------------------------|--------------------------------| 
|--------------------------------|------------------------------|--------------------------------| 
|--------------------------------|------------------------------|--------------------------------| 
 
 
  D5                          E5                        G5                 A5 
|---------------------------|-------------------------|---------------------------------------| 
|-----------------------7---|-8-----7-----7-----------|---------------------------------7-----| 
|-9-----------(9)---9-------|---------9---------9-7---|--9s====4----------(4)-----9-----------| 
|---------------------------|-------------------------|---------------------------------------| 
|---------------------------|-------------------------|---------------------------------------| 
|---------------------------|-------------------------|---------------------------------------| 
 
                                                              E5 
  Gtrs III, IV 
  E5                  G5      A5          D5       
|-------------------|-------------------|-------------------|------| 
|-8---7----7--------|----------------7--|-8---7----------7--|------| 
|-------9------9-7--|-9------(9)--9-----|-------9--7---9----|-9----| 
|-------------------|-------------------|-------------------|------| 
|-------------------|-------------------|-------------------|------| 
|-------------------|-------------------|-------------------|------| 
| 
| Gtr V 
|-------------------|-------------------|-------------------|------| 
|-------------------|-------------------|-------------------|------| 
|-------------------|-------------------|-------------------|------| 
|-------------------|-------------------|-------------------|-2----| 
|-------------------|-------------------|-------------------|-2----| 
|-------------------|-------------------|-------------------|-0----| 
 
 
 
  Gtr III 
              ~~~~~~ 
|---------------------------------|----------------------12--14--|-14b15---14-12-------12-14---| 
|-15b17------15b17=====(15)r(15)--|-15-15b17------15b17----------|----------------15-----------| 
|---------------------------------|------------------------------|-----------------------------| 
|---------------------------------|------------------------------|-----------------------------| 
|---------------------------------|------------------------------|-----------------------------| 
|---------------------------------|------------------------------|-----------------------------| 
| 
| Gtrs IV, V 
|---------------------------------|------------------------------|-----------------------------| 
|---------------------------------|------------------------------|-----------------------------| 
|---------------------------------|------------------------------|--5--------------2-----------| 
|-(2)-----------------------------|----(2)-----------------------|--5--------------2-----------| 
|-(2)-----------------------------|----(2)-----------------------|--3--------------0-----------| 
|-(0)-----------------------------|----(0)-----------------------|-----------------------------| 
 
 
  E5                   C5             A5            D5                        C5             D5 
                                                     ~~ 
|-12------17b19------|-17b19---17-15--14---15-14--|---------------12--14---|-14b15---14-12-------12-14--|-12--------------12----------| 
|--------------------|----------------------------|-15------(15)-----------|----------------15----------|----------15b17-----15-12----| 
|--------------------|----------------------------|------------------------|----------------------------|--------------------------15-| 
|--------------------|----------------------------|------------------------|----------------------------|-----------------------------| 
|--------------------|----------------------------|------------------------|----------------------------|-----------------------------| 
|--------------------|----------------------------|------------------------|----------------------------|-----------------------------| 
| 
|--------------------|----------------------------|------------------------|----------------------------|-----------------------------| 
|--------------------|----------------------------|------------------------|----------------------------|-----------------------------| 
|--------------------|--5--------------2----------|--7---------------------|--5--------------7----------|-(7)-------------------------| 
|--2-----------------|--5--------------2----------|--7---------------------|--5--------------7----------|-(7)-------------------------| 
|--2-----------------|--3--------------0----------|--5---------------------|--3--------------5----------|-(5)-------------------------| 
|--0-----------------|----------------------------|------------------------|----------------------------|-----------------------------| 
 
 
  C5                A5                         E5                        C5            A5 
|-------------------------------------------|-------------------------|-17b19=====17--17r(17)-15p14-15p14-| 
|-12----------------15b17r=(15)--(15)b17====|-15---(15)---(15)r\------|-----------------------------------| 
|----15-14-12----12-------------------------|-------------------------|-----------------------------------| 
|-------------14----------------------------|-------------------------|-----------------------------------| 
|-------------------------------------------|-------------------------|-----------------------------------| 
|-------------------------------------------|-------------------------|-----------------------------------| 
| 
|-------------------------------------------|-------------------------|-----------------------------------| 
|-------------------------------------------|-------------------------|-----------------------------------| 
|--5-----------------2----------------------|-------------------------|--5-------------2------------------| 
|--5-----------------2----------------------|--2----------------------|--5-------------2------------------| 
|--3-----------------0----------------------|--2----------------------|--3-------------0------------------| 
|-------------------------------------------|--0----------------------|-----------------------------------| 
 
 
  D5                                     C5                  A5                E5 
|-15p14----14-15-17-15p14----14-15p14--|----14-17b19--17-15-14h15-14----14--|---------------| 
|-------15----------------15-----------|-15--------------------------15-----|-17------------| 
|--------------------------------------|------------------------------------|---------------| 
|--------------------------------------|------------------------------------|---------------| 
|--------------------------------------|------------------------------------|---------------| 
|--------------------------------------|------------------------------------|---------------| 
| 
|--------------------------------------|------------------------------------|---------------| 
|--------------------------------------|------------------------------------|---------------| 
|--7-----------------------------------|--5------------------2--------------|---------------| 
|--7-----------------------------------|--5------------------2--------------|--2------------| 
|--5-----------------------------------|--3------------------0--------------|--2------------| 
|--------------------------------------|------------------------------------|--0------------| 
 
 
Fim do solo                              E5                 C5 
|------------------------------------||-----------------------------| 
|-15b17=======(15)r(15)-12-----------||-----------------------------| 
|--------------------------15p14p12--||----------12-(12)--(12)------| 
|------------------------------------||-14-12-14--------------------| 
|------------------------------------||-----------------------------| 
|------------------------------------||-----------------------------| 
| 
|------------------------------------||-----------------------------| 
|------------------------------------||-----------------------------| 
|------------------------------------||---------------------5-------| 
|-(2)--------------------------------||--2------------------5-------| 
|-(2)--------------------------------||--2------------------3-------| 
|-(0)--------------------------------||--0--------------------------| 
 
 
Na segunda vez, seguir o acompanhamento a seguir para o Refrão 
 
  E5        C5          G5        D5          E5        C5          G5       D5 
 
      PM--|     PM--|       PM--|     PM--|       PM--|     PM--|       PM--|     PM--| 
|---------------------|---------------------|---------------------|------------------------| 
|---------------------|---------------------|---------------------|------------------------| 
|-9---------5---------|-----------7---------|-9---------5---------|-----------7------------| 
|-9---------5---------|-5---------7---------|-9---------5---------|-5---------7------------| 
|-7---7-7-7-3---3-3-3-|-5---------5---5-5-5-|-7---7-7-7-3---3-3-3-|-5---------5---5-5-5----| 
|-0-------------------|-3---3-3-3-----------|-0-------------------|-3---3-3-3--------------| 
 
  E5        C5          G5        D5          E5        C5          G5       D5 
      PM--|     PM--|       PM--|     PM--|       PM--|     PM--|       PM--| 
|---------------------|---------------------|---------------------|---------------------| 
|---------------------|---------------------|---------------------|---------------------| 
|-9---------5---------|-----------7---------|-9---------5---------|-----------7--7------| 
|-9---------5---------|-5---------7---------|-9---------5---------|-5---------7--7------| 
|-7---7-7-7-3---3-3-3-|-5---------5---5-5-5-|-7---7-7-7-3---3-3-3-|-5---------5--5------| 
|-0-------------------|-3---3-3-3-----------|-0-------------------|-3---3-3-3-----------| 
 
 
Refrão 
            E5   C5    G5  D5 
We're blood bro__thers, 
            E5   C5    G5  D5 
We're blood bro__thers, 
            E5   C5    G5  D5 
We're blood bro__thers, 
            E5   C5    G5  D5 
We're blood bro__thers, 
 
 
 
 
Outro 
  E5              G5                C5              D5                E5              G5                 C5              D5 
|---------------------------------|---------------------------------|---------------------------------|-------------------------------| 
|---------------------------------|---------------------------------|---------------------------------|-------------------------------| 
|---------------------------------|---------------------------------|---------------------------------|-------------------------------| 
|---------------------------------|-------5-----5---------7---------|---------------------------------|-------5-----5---------7-------| 
|-------2-----2---------5---------|--3-------3-------5---------5----|-------2-----2---------5---------|--3-------3-------5------------| 
|--0-------0-------3---------3----|---------------------------------|--0-------0-------3---------3----|----------------------------3--| 
 
Gtr. 2  
   E5             G5                 C5              D5                 
|-----------------8--------7------|--7-------------------------------| 
|-----------------------------10--|-----------10--8--10----8----7----| 
|--9--------7--9------------------|----------------------------------| 
|---------------------------------|----------------------------------| 
|---------------------------------|----------------------------------| 
|---------------------------------|----------------------------------| 
 
   E5             G5                 C5              D5                E5             G5                  
|-----------------8--------7------|--7------------------------------|-----------------8--------7------| 
|-----------------------------10--|-----------10--8--7----8----7----|-----------------------------10--| 
|--9--------7--9------------------|---------------------------------|--9--------7--9------------------| 
|---------------------------------|---------------------------------|---------------------------------| 
|---------------------------------|---------------------------------|---------------------------------| 
|---------------------------------|---------------------------------|---------------------------------| 
 
 
   C5             D5                 E5             G5                 C5              D5                
|--7------------------------------|-----------------8--------7------|--7-------------------------------| 
|----------10--8--10----8----7----|-----------------------------10--|------------10--8--7----8----7----| 
|---------------------------------|--9--------7--9------------------|----------------------------------| 
|---------------------------------|---------------------------------|----------------------------------| 
|---------------------------------|---------------------------------|----------------------------------| 
|---------------------------------|---------------------------------|----------------------------------| 
                                      And if you're taking   a         walk through the gar__den of  
 
  Em7            D  F#  
|----------------------------*| 
|----------------------------*| 
|-7-(7)s=====9--------(9)----*| 
|----------------------------*| 
|----------------------------*| 
|----------------------------*| 
  life 
	  

Full key step upFull key step up
Half key step upHalf key step up
Half key step downHalf key step down
Full key step downFull key step down
Search Paypal
auto scroll beats size up size down change color hide chords drawings
tab show chords e-chords YouTube Clip e-chords hide all tabs e-chords go to top tab