Iron Maiden

home > Iron Maiden

2 minutes to midnight (Rock In Rio) Tab

Iron Maiden

Difficulty: BeginnerBeginner

by victor%2Eh

tuner correct add songbook print version text version save to e-mail
chordsukulelecavacokeyboardtabbassdrumsharmonicsflute Guitar Pro
chords

2 minutes to midnight (Rock In Rio)

  		(Rock In Rio 2001) 
 
Intro: 
|-------------------------|-------------------------| 
|-------------------------|-------------------------| 
|----5----7----5----7v----|----5----7----5----2-----| 
|----5----7----5----7v----|----5----7----5----0-----| 
|-0-0--0-0--0-0--0-0------|-0-0--0-0--0-0--0-0------| 
|-------------------------|-------------------------| 
(play 6 times) 
 
Verse: 
|-------------------------|-------------------------| 
|-------------------------|-------------------------| 
|----5----7----5----7v----|----5----7----5----2-----| 
|----5----7----5----7v----|----5----7----5----0-----| 
|-0-0--0-0--0-0--0-0------|-0-0--0-0--0-0--0-0------| 
|-------------------------|-------------------------| 
(play 2 times) 
 
|-------------------------|-------------------------| 
|-------------------------|-------------------------| 
|----5----7----5----7v----|----5----7--5--7---5-----| 
|----5----7----5----7v----|----5----7--5--7---5-----| 
|-0-0--0-0--0-0--0-0------|-5-5--5-5--5--5--5-5-----| 
|-------------------------|-------------------------| 
(play 1 time) 
 
|-------------------------|-------------------------| 
|-------------------------|-------------------------| 
|----5----7----5----7v----|----5----7----5----2-----| 
|----5----7----5----7v----|----5----7----5----0-----| 
|-0-0--0-0--0-0--0-0------|-0-0--0-0--0-0--0-0------| 
|-------------------------|-------------------------| 
(play 1 time) 
 
Bridge: 
|---------------------------------------------| 
|--------6------4-----------------------------| 
|--------5------3------5------4----------3----| 
|-7------7------5------5------4------3----3---| 
|-7------0------0------3------2-------3----1--| 
|-5------------------------------------1------| 
(play 2 times) 
 
Chorus: 
|-----------------------|------------------------------------| 
|-----------------------|------------------------------------| 
|-----------------------|-5-------------7--------------------| 
|-5-7-7p5----5-7-7p5----|-5------5------7------3------5------| 
|-0-0-0-0-7--0-0-0-0-7--|-3------5------5------3------5------| 
|-----------------------|--------3-------------1------3------| 
(play 2 times) 
 
Riff: 
|-------------------------|------------------------------| 
|-------------------------|------------------------------| 
|----5----7----5----7v----|----5----7----5---------------| 
|----5----7----5----7v----|----5----7----5-7-5-----------| 
|-0-0--0-0--0-0--0-0------|-0-0--0-0--0-0-----7-6-5-3----| 
|-------------------------|------------------------------| 
 
Repita o VERSE, o BRIDGE E O Chorus! 
Eo resto eu não consegui tirar!!! 

	  

Search Paypal
auto scroll beats size up size down change color hide chords drawings
tab show chords e-chords YouTube Clip e-chords hide all tabs e-chords go to top tab