Iron Maiden

home > Iron Maiden

Paschendale Tab

Iron Maiden

Difficulty: ExpertExpert

tuner correct add songbook print version text version save to e-mail
chordsukulelecavacokeyboardtabbassdrumsharmonicsflute Guitar Pro
chords

Paschendale

Year: 2003 - Album: Death on the Road

  		 
--0--10--12--0--8--12--0--7--12--0--5--12--0--7--12----------- 
-------------------------------------------------------------- 
-------------------------------------------------------------- 
-------------------------------------------------------------- 
-------------------------------------------------------------- 
-------------------------------------------------------------- 
 
--0--7--12--0--5--12--0--3--12--0--2--12--0--12--------------- 
--------------------------------------------------------------  
-------------------------------------------------------------- 
--------------------------------------------------------------  
--------------------------------------------------------------  
-------------------------------------------------------------- 
 
Guitars enter after bass. 
 
-------------------------------------------------------------- 
-------------------------------------------------------------- 
-------------------------------------------------------------- 
--9-9--7-7--5-5--4-4----5-5--4-4--2-2------------------------- 
--7-7--5-5--3-3--2-4----3-3--2-2--0-0--2-2-------------------- 
---------------------------------------0-0-------------------- 
 
-------------------------------------------------------------- 
-------------------------------------------------------------- 
-------------------------------------------------------------- 
--9-9--7-7--5-5--4-4----5-5--7-7--7-7--9-9-------------------- 
--7-7--5-5--3-3--2-4----3-3--5-5--5-5--7-7-------------------- 
-------------------------------------------------------------- 
 
--0--10--12--0--8--12--0--7--12--0--5--12--0--7--12----------- 
-------------------------------------------------------------- 
-------------------------------------------------------------- 
-------------------------------------------------------------- 
-------------------------------------------------------------- 
-------------------------------------------------------------- 
 
--0--7--12--0--5--12--0--3--12--0--2--12--0--12--------------- 
--------------------------------------------------------------  
-------------------------------------------------------------- 
--------------------------------------------------------------  
--------------------------------------------------------------  
-------------------------------------------------------------- 
 
-------------------------------------------------------------- 
-------------------------------------------------------------- 
-------------------------------------------------------------- 
--17-17--16-16--14-14--12-12--12-12-12------------------------ 
--15-15--14-14--12-12--10-10--10-10-10------------------------ 
-------------------------------------------------------------- 
 
-------------------------------------------------------------- 
-------------------------------------------------------------- 
-------------------------------------------------------------- 
--14-14--12-12--11-11--9-9--9-9-9----------------------------- 
--12-12--10-10--9--9---7-7--7-7-7----------------------------- 
-------------------------------------------------------------- 
 
All Guitars play this. 
 
Laying Low In A.......................................... 
 
-------------------------------------------------------------- 
-------------------------------------------------------------- 
-------------------------------------------------------------- 
--7/9-9-9-9---7-7-7--9-9----7/9-9-9-9---5-5-5--7-7------------ 
--5/7-7-7-7---5-5-5--7-7----5/7-7-7-7---3-3-3--5-5------------ 
-------------------------------------------------------------- 
 
-------------------------------------------------------------- 
-------------------------------------------------------------- 
-------------------------------------------------------------- 
--7/9-9-9-9---7-7-7--9-9----9/12-12-12-12---5-5-5--7-7-------- 
--5/7-7-7-7---5-5-5--7-7----7/10-10-10-10---3-3-3--5-5-------- 
-------------------------------------------------------------- 
 
-------------------------------------------------------------- 
-------------------------------------------------------------- 
-------------------------------------------------------------- 
--7/9-9-9-9---7-7-7--9-9----7/9-9-9-9---5-5-5--7-7------------ 
--5/7-7-7-7---5-5-5--7-7----5/7-7-7-7---3-3-3--5-5------------ 
-------------------------------------------------------------- 
 
-------------------------------------------------------------- 
-------------------------------------------------------------- 
-------------------------------------------------------------- 
--7/9-9-9-9---7-7-7--9-9----9/12-12-12-12--------------------- 
--5/7-7-7-7---5-5-5--7-7----7/10-10-10-10---5-5-5--7-7-------- 
--------------------------------------------3-3-3--5-5-------- 
 
-------------------------------------------------------------- 
-------------------------------------------------------------- 
-------------------------------------------------------------- 
------5-------------7-------5-------------7------------------- 
-2----3--5--2----5--5--2----3--5--2----5--5--2---------------- 
-0-------3--0----3-----0-------3--0----3-----0---------------- 
 
-------------------------------------------------------------- 
-------------------------------------------------------------- 
-------------------------------------------------------------- 
--9-9--7-7--5-5--4-4----5-5--4-4--2-2------------------------- 
--7-7--5-5--3-3--2-4----3-3--2-2--0-0--2-2-------------------- 
---------------------------------------0-0-------------------- 
 
-------------------------------------------------------------- 
-------------------------------------------------------------- 
-------------------------------------------------------------- 
--9-9--7-7--5-5--4-4----5-5--7-7--7-7--9-9-------------------- 
--7-7--5-5--3-3--2-4----3-3--5-5--5-5--7-7-------------------- 
-------------------------------------------------------------- 
 
-------------------------------------------------------------- 
-------------------------------------------------------------- 
-------------------------------------------------------------- 
--17-17--16-16--14-14--12-12--12-12-12------------------------ 
--15-15--14-14--12-12--10-10--10-10-10------------------------ 
-------------------------------------------------------------- 
 
-------------------------------------------------------------- 
-------------------------------------------------------------- 
-------------------------------------------------------------- 
--14-14--12-12--11-11--9-9--9-9-9----------------------------- 
--12-12--10-10--9--9---7-7--7-7-7----------------------------- 
-------------------------------------------------------------- 
 
Home far away................. 
 
-------------------------------------------------------------- 
-------------------------------------------------------------- 
-------------------------------------------------------------- 
--9---12-7-7---4-7-9---12-5-5---7-7--------------------------- 
--7---10-5-5---2-5-7---10-3-3---5-5--------------------------- 
-------------------------------------------------------------- 
 
Then this 4 times. 
 
-------------------------------------------------------------- 
-------------------------------------------------------------- 
-------------------------------------------------------------- 
--2----4----5----7-------------------------------------------- 
--0----2----3----5-------------------------------------------- 
-------------------------------------------------------------- 
 
-------------------------------------------------------------- 
-------------------------------------------------------------- 
-------------------------------------------------------------- 
--9-9--7-7--5-5--4-4----5-5--4-4--2-2------------------------- 
--7-7--5-5--3-3--2-4----3-3--2-2--0-0--2-2-------------------- 
---------------------------------------0-0-------------------- 
 
 
-------------------------------------------------------------- 
-------------------------------------------------------------- 
-------------------------------------------------------------- 
--9-9--7-7--5-5--4-4----5-5--4-4--2-2------------------------- 
--7-7--5-5--3-3--2-4----3-3--2-2--0-0--2-2-------------------- 
---------------------------------------0-0-------------------- 
 
-------------------------------------------------------------- 
-------------------------------------------------------------- 
-------------------------------------------------------------- 
--9-9--7-7--5-5--4-4----5-5--7-7--7-7--9-9-------------------- 
--7-7--5-5--3-3--2-4----3-3--5-5--5-5--7-7-------------------- 
-------------------------------------------------------------- 
 
-------------------------------------------------------------- 
-------------------------------------------------------------- 
-------------------------------------------------------------- 
--17-17--16-16--14-14--12-12--12-12-12------------------------ 
--15-15--14-14--12-12--10-10--10-10-10------------------------ 
-------------------------------------------------------------- 
 
-------------------------------------------------------------- 
-------------------------------------------------------------- 
-------------------------------------------------------------- 
--14-14--12-12--11-11--9-9--9-9-9----------------------------- 
--12-12--10-10--9--9---7-7--7-7-7----------------------------- 
-------------------------------------------------------------- 
 
Guitar 01 
 
-------------------------------------------------------------- 
--5--7-8-5---7--8-10-7---8--10-12-8---10-8-7------------------ 
---------------------------------------------4---------------- 
-------------------------------------------------------------- 
-------------------------------------------------------------- 
-------------------------------------------------------------- 
 
Guitar 02 on second time. 
 
--12--14-15-12---14--15-17-14---15--17-19-15------------------ 
-------------------------------------------------------------- 
-------------------------------------------------------------- 
-------------------------------------------------------------- 
-------------------------------------------------------------- 
-------------------------------------------------------------- 
 
--17-15-14---------------------------------------------------- 
------------12------------------------------------------------ 
-------------------------------------------------------------- 
-------------------------------------------------------------- 
-------------------------------------------------------------- 
-------------------------------------------------------------- 
 
 
Then this 4 times 
 
-------------------------------------------------------------- 
-------------------------------------------------------------- 
-------------------------------------------------------------- 
----------4-----------4-------------------------7------------- 
--------0-2---3-2-0-3-2---3-2-0-5---2-3-2-0-----5------------- 
--0-2-3-------------------------3-----------3-2--------------- 
 
 
 
 
-------------------------------------------------------------- 
-------------------------------------------------------------- 
-------------------------------------------------------------- 
--7/9-9-9-9---5-5-5--7-7----5/7-7-7-7---4-4-4--5-5------------ 
--5/7-7-7-7---3-3-3--5-5----3/5-5-5-5---2-2-2--3-3------------ 
-------------------------------------------------------------- 
 
-------------------------------------------------------------- 
-------------------------------------------------------------- 
-------------------------------------------------------------- 
--7/9-9-9-9---5-5-5--7-7----5/7-7-7-7---4-4-4--5-------------- 
--5/7-7-7-7---3-3-3--5-5----3/5-5-5-5---2-2-2--3-3-2-0-------- 
-------------------------------------------------------3------ 
 
 
-------------------------------------------------------------- 
-------------------------------------------------------------- 
-------------------------------------------------------------- 
--7/9-9-9-9---5-5-5--7-7----5/7-7-7-7---4-4-4--5-5------------ 
--5/7-7-7-7---3-3-3--5-5----3/5-5-5-5---2-2-2--3-3------------ 
-------------------------------------------------------------- 
 
-------------------------------------------------------------- 
-------------------------------------------------------------- 
-------------------------------------------------------------- 
--7/9-9-9-9---5-5-5--7-7----5/7-7-7-7---4-4-4--5-------------- 
--5/7-7-7-7---3-3-3--5-5----3/5-5-5-5---2-2-2--3-3-2-0-------- 
-------------------------------------------------------3------ 
 
-------------------------------------------------------------- 
-------------------------------------------------------------- 
-------------------------------------------------------------- 
------5-------------7-------5-------------7------------------- 
-2----3--5--2----5--5--2----3--5--2----5--5--2---------------- 
-0-------3--0----3-----0-------3--0----3-----0---------------- 
 
This 4 times before first solo 
 
-------------------------------------------------------------- 
-------------------------------------------------------------- 
-------------------------------------------------------------- 
--9-9-9-9-9-9-9-9-9-9-9-9-12-12------------------------------- 
--7-7-7-7-7-7-7-7-7-7-7-7-10-10------------------------------- 
-------------------------------------------------------------- 
 
-------------------------------------------------------------- 
-------------------------------------------------------------- 
-------------------------------------------------------------- 
--7-7-7-7-7-7-7-7-7-7-7-7-12-12------------------------------- 
--5-5-5-5-5-5-5-5-5-5-5-5-10-10------------------------------- 
-------------------------------------------------------------- 
 
First solo rythm.Dave is leading here i think. 
Play 4 times. 
 
-------------------------------------------------------------- 
-------------------------------------------------------------- 
-------------------------------------------------------------- 
--9-9-9-9-9-9-9-9-9-9-9-9-12-12------------------------------- 
--7-7-7-7-7-7-7-7-7-7-7-7-10-10------------------------------- 
-------------------------------------------------------------- 
 
-------------------------------------------------------------- 
-------------------------------------------------------------- 
-------------------------------------------------------------- 
--7-7-7-7-7-7-7-7-7-7-7-7-12-12------------------------------- 
--5-5-5-5-5-5-5-5-5-5-5-5-10-10------------------------------- 
-------------------------------------------------------------- 
 
Second rythm.Now adrian is leading 
Play 4 times 
 
-------------------------------------------------------------- 
-------------------------------------------------------------- 
-------------------------------------------------------------- 
--6-6-6-6-6-6-6-6-6-6-6-6-9-9--------------------------------- 
--4-4-4-4-4-4-4-4-4-4-4-4-7-7--------------------------------- 
-------------------------------------------------------------- 
 
-------------------------------------------------------------- 
-------------------------------------------------------------- 
-------------------------------------------------------------- 
--4-4-4-4-4-4-4-4-4-4-4-4-11-11------------------------------- 
--2-2-2-2-2-2-2-2-2-2-2-2-9--9-------------------------------- 
-------------------------------------------------------------- 
 
Blood is falling.................................. 
Play 4 times. 
 
-------------------------------------------------------------- 
-------------------------------------------------------------- 
-------------------------------------------------------------- 
--------------------------4-4--------------------------------- 
--6-6-6-6-6-6-6-6-6-6-6-6-2-2--------------------------------- 
--4-4-4-4-4-4-4-4-4-4-4-4------------------------------------- 
 
-------------------------------------------------------------- 
-------------------------------------------------------------- 
-------------------------------------------------------------- 
--------------------------4-4--------------------------------- 
--4-4-4-4-4-4-4-4-4-4-4-4-6-6--------------------------------- 
--2-2-2-2-2-2-2-2-2-2-2-2------------------------------------- 
 
Last Solo rythm.Janicks turn. 
Play 4 times 
 
-------------------------------------------------------------- 
-------------------------------------------------------------- 
-------------------------------------------------------------- 
-7-7-7-7-7-7-7-7-7-7-7-7-10-10-------------------------------- 
-5-5-5-5-5-5-5-5-5-5-5-5-8--8--------------------------------- 
-------------------------------------------------------------- 
 
-------------------------------------------------------------- 
-------------------------------------------------------------- 
-------------------------------------------------------------- 
-5-5-5-5-5-5-5-5-5-5-5-5-12-12-------------------------------- 
-3-3-3-3-3-3-3-3-3-3-3-3-10-10-------------------------------- 
-------------------------------------------------------------- 
 
Guitar 02 
 
-------------------------------------------------------------- 
-------------------------------------------------------------- 
-------------------------------------------------------------- 
--9-9--7-7--5-5--4-4----5-5--4-4--2-2------------------------- 
--7-7--5-5--3-3--2-4----3-3--2-2--0-0--2-2-------------------- 
---------------------------------------0-0-------------------- 
 
-------------------------------------------------------------- 
-------------------------------------------------------------- 
-------------------------------------------------------------- 
--9-9--7-7--5-5--4-4----5-5--7-7--7-7--9-9-------------------- 
--7-7--5-5--3-3--2-4----3-3--5-5--5-5--7-7-------------------- 
-------------------------------------------------------------- 
 
-------------------------------------------------------------- 
-------------------------------------------------------------- 
-------------------------------------------------------------- 
--17-17--16-16--14-14--12-12--12-12-12------------------------ 
--15-15--14-14--12-12--10-10--10-10-10------------------------ 
-------------------------------------------------------------- 
 
-------------------------------------------------------------- 
-------------------------------------------------------------- 
-------------------------------------------------------------- 
--14-14--12-12--11-11--9-9--9-9-9----------------------------- 
--12-12--10-10--9--9---7-7--7-7-7----------------------------- 
-------------------------------------------------------------- 
 
-------------------------------------------------------------- 
-------------------------------------------------------------- 
-------------------------------------------------------------- 
------5-------------7-------5-------------7------------------- 
-2----3--5--2----5--5--2----3--5--2----5--5--2---------------- 
-0-------3--0----3-----0-------3--0----3-----0---------------- 
 
Outro 
 
--0--7--12--0--5--12--0--3--12--0--2--12--0------------------- 
-------------------------------------------------------------- 
-------------------------------------------------------------- 
-------------------------------------------------------------- 
-------------------------------------------------------------- 
-------------------------------------------------------------- 
 
 
_______________________________________________________ 
Contribuição: Demetrio Ferreira Czmyr([email protected]) 

	  

Search Paypal
auto scroll beats size up size down change color hide chords drawings
tab show chords e-chords YouTube Clip e-chords hide all tabs e-chords go to top tab