Iron Maiden

home > Iron Maiden

The Nomad Tab

Iron Maiden

Difficulty: EasyEasy

tuner correct add songbook print version text version save to e-mail
chordsukulelecavacokeyboardtabbassdrumsharmonicsflute Guitar Pro
chords

The Nomad

Year: 2000 - Album: Brave New World

  		Intro:
      
   Guitar 1:                                                     
E||----------------------------|----------------------------|
B||----------------------------|----------------------------|
G||----------9/10\9---9----9---|----------9/10\9---7----7---|
D||----------9/10\9---9----9---|----------9/10\9---7----7---|
A||--7-7-7-7-7/8\-7---7----7---|--7-7-7-7-7/8\-7---5----5---|
E||----------------------------|----------------------------|
 ||
 ||Guitar 2              H  H                    H   H    H
E||---------------------12-----|----------------12----------|
B||----------------------------|--------------------12------|
G||-------------------------7--|----------------------------|
D||----------------------------|--------------------------7-|
A||----------------------------|----------------------------|
E||----------------------------|----------------------------|

  
                                                         
 Guitar 1                                                          
|----------------------------|-----------------------------|
|----------------------------|-----------------------------|
|----------9/10\9---9----9---|----------9/10\9-------------|
|----------9/10\9---9----9---|----------9/10\9---10----7---|
|--7-7-7-7-7/8\-7---7----7---|--7-7-7-7-7/8\-7---10----7---|
|----------------------------|-------------------8-----5---|
|
|Guitar 2                  H                             H
|-------------------------12-|--------------------------12-|
|----------------------------|-----------------------------|
|----------------------------|-----------------------------|
|----------------------------|-----------------------------|
|----------------------------|-----------------------------|
|----------------------------|-----------------------------|


 Guitar 1                                                         
|----------------------------|----------------------------|
|----------------------------|----------------------------|
|----------9/10\9---9----9---|----------9/10\9---7----7---|
|----------9/10\9---9----9---|----------9/10\9---7----7---|
|--7-7-7-7-7/8\-7---7----7---|--7-7-7-7-7/8\-7---5----5---|
|----------------------------|----------------------------|
|
|Guitar 2                  H                             
|-------------------------12-|-----------------------------|
|----------------------------|-----------------------------|
|----------------------------|-----------------------------|
|----------------------------|-----------------------------|
|----------------------------|-----------------------------|
|----------------------------|-----------------------------|
  


 Guitar 1                                                      
|----------------------------|--------------------------|
|----------------------------|--------------------------|
|----------9/10\9---9----9---|----------9/10\9----------|
|----------9/10\9---9----9---|----------9/10\9----------|
|--7-7-7-7-7/8\-7---7----7---|--7-7-7-7-7/8\-7----------|
|----------------------------|--------------------------|
|
|Guitar 2          H
|-----------------12---------|--------------------------|
|----------------------------|--------------------------|
|----------------------------|--------------------------|
|----------------------------|--------------------------|
|----------------------------|--------------------------|
|----------------------------|--------------------------|


Then:


2x


 Guitar 1
|----------------------------------------|----------------------------------------|
|----------------------------------------|----------------------------------------|
|--------------9/10\9---------9------9---|--------------9/10\9---------7------7---|
|--------------9/10\9---------9------9---|--------------9/10\9---------7------7---|
|--7--7--7--7--7/8\-7---------7------7---|--7--7--7--7--7/8\-7---------5------5---|
|----------------------------------------|----------------------------------------|
|
|Guitar 2
|----------------------------------------|----------------------------------------|
|------------12h13p12h---13--12------12--|------------12h13p12h---13--12----------|
|---------------------14---------14------|---------------------14---------14------|
|----------------------------------------|------------------------------------14--|
|----------------------------------------|----------------------------------------|
|----------------------------------------|----------------------------------------|

 Guitar 1
|----------------------------------------|----------------------------------------|
|----------------------------------------|----------------------------------------|
|--------------9/10\9---------9------9---|--------------9/10\9--------------------|
|--------------9/10\9---------9------9---|--------------9/10\9---------10-----7---|
|--7--7--7--7--7/8\-7---------7------7---|--7--7--7--7--7/8\-7---------10-----7---|
|----------------------------------------|-----------------------------8------5---|
|
|Guitar 2
|----------------------------------------|----------------------------------------|
|------------12h13p12h---13--12------12--|------------12h13p12h---13--12----------|
|---------------------14---------14------|---------------------14---------14------|
|----------------------------------------|------------------------------------14--|
|----------------------------------------|----------------------------------------|
|----------------------------------------|----------------------------------------|

                                                           
1x

 Guitar 1
|----------------------------------------|----------------------------------------|
|----------------------------------------|----------------------------------------|
|----------------------------------------|----------------------------------------|
|--------------9--------------9------9---|--------------9--------------7------7---|
|--------------9--------------9------9---|--------------9--------------7------7---|
|--------------7--------------7------7---|--------------7--------------5------5---|
|
|Guitar 2
|----------------------------------------|----------------------------------------|
|------------12h13p12h---13--12------12--|------------12h13p12h---13--12----------|
|---------------------14---------14------|---------------------14---------14------|
|----------------------------------------|------------------------------------14--|
|----------------------------------------|----------------------------------------|
|----------------------------------------|----------------------------------------|



 Guitar 1
|----------------------------------------|----------------------------------------|
|----------------------------------------|----------------------------------------|
|----------------------------------------|----------------------------------------|
|--------------9--------------9------9---|--------------9-------------10------7---|
|--------------9--------------9------9---|--------------9-------------10------7---|
|--------------7--------------7------7---|--------------7-------------8-------5---|
|
|Guitar 2
|----------------------------------------|----------------------------------------|
|------------12h13p12h---13--12------12--|------------12h13p12h---13--12----------|
|---------------------14---------14------|---------------------14---------14------|
|----------------------------------------|------------------------------------14--|
|----------------------------------------|----------------------------------------|
|----------------------------------------|----------------------------------------|


1x

 Guitar 1
|----------------------------------------|----------------------------------------|
|----------------------------------------|----------------------------------------|
|--------------9/10\9---------9------9---|--------------9/10\9---------7------7---|
|--------------9/10\9---------9------9---|--------------9/10\9---------7------7---|
|--7--7--7--7--7/8\-7---------7------7---|--7--7--7--7--7/8\-7---------5------5---|
|----------------------------------------|----------------------------------------|
|
|Guitar 2
|----------------------------------------|----------------------------------------|
|------------12h13p12h---13--12------12--|------------12h13p12h---13--12----------|
|---------------------14---------14------|---------------------14---------14------|
|----------------------------------------|------------------------------------14--|
|----------------------------------------|----------------------------------------|
|----------------------------------------|----------------------------------------|

 Guitar 1
|----------------------------------------|----------------------------------------|
|----------------------------------------|----------------------------------------|
|--------------9/10\9---------9------9---|--------------9/10\9--------------------|
|--------------9/10\9---------9------9---|--------------9/10\9---------10-----7---|
|--7--7--7--7--7/8\-7---------7------7---|--7--7--7--7--7/8\-7---------10-----7---|
|----------------------------------------|-----------------------------8------5---|
|
|Guitar 2
|----------------------------------------|----------------------------------------|
|------------12h13p12h---13--12------12--|------------12h13p12h---13--12----------|
|---------------------14---------14------|---------------------14---------14------|
|----------------------------------------|------------------------------------14--|
|----------------------------------------|----------------------------------------|
|----------------------------------------|----------------------------------------|


Intro Bridge:

 Guitar 1
|--------------------|---------------------|
|--------------------|---------------------|
|--------------------|---------------------|
|--9-----------------|--4------5----4------|
|--9-----------------|--4------5----4------|
|--7-----------------|--2------3----2------|
|
|Guitar 2
|--------------------|---------------------|
|--10b---------------|--7/-----8\---7------|
|--------------------|---------------------|
|--------------------|---------------------|
|--------------------|---------------------|
|--------------------|---------------------|



Intro Ending (Like Chorus 1):

2x

 Guitar 1
|----------------------------------------|----------------------------------------|
|----------------------------------------|----------------------------------------|
|--------------9/10\9---------9------9---|--------------9/10\9---------7------7---|
|--------------9/10\9---------9------9---|--------------9/10\9---------7------7---|
|--7--7--7--7--7/8\-7---------7------7---|--7--7--7--7--7/8\-7---------5------5---|
|----------------------------------------|----------------------------------------|
|
|Guitar 2
|----------------------------------------|----------------------------------------|
|------------12h13p12h---12~-------------|------------12h13p12h---15--13--12------|
|---------------------14-----------------|---------------------14-------------14--|
|----------------------------------------|----------------------------------------|
|----------------------------------------|----------------------------------------|
|----------------------------------------|----------------------------------------|



 Guitar 1
|----------------------------------------|----------------------------------------|
|----------------------------------------|----------------------------------------|
|--------------9/10\9---------9------9---|--------------9/10\9--------------------|
|--------------9/10\9---------9------9---|--------------9/10\9---------10-----7---|
|--7--7--7--7--7/8\-7---------7------7---|--7--7--7--7--7/8\-7---------10-----7---|
|----------------------------------------|-----------------------------8------5---|
|
|Guitar 2
|----------------------------------------|----------------------------------------|
|-12---------12h13p12h---12~-------------|------------12h13p12h---15--13--12------|
|---------------------14-----------------|---------------------14-------------14--|
|----------------------------------------|----------------------------------------|
|----------------------------------------|----------------------------------------|
|----------------------------------------|----------------------------------------|


Vers:

2x

|-------------------|--------------------|-------------------|--------------------|
|-------------------|--------------------|-------------------|--------------------|
|-------------------|--------------------|-------------------|-----------7--------|
|--9----------------|--4--------7--------|--9----------------|--4--------7--------|
|--9----------------|--4--------7--------|--9----------------|--4--------5--------|
|--7----------------|--2--------5--------|--7----------------|--2-----------------|



Chorus Version 1 (The Shorter One):
                         
2x

 Guitar 1
|----------------------------------------|----------------------------------------|
|----------------------------------------|----------------------------------------|
|--------------9/10\9---------9------9---|--------------9/10\9---------7------7---|
|--------------9/10\9---------9------9---|--------------9/10\9---------7------7---|
|--7--7--7--7--7/8\-7---------7------7---|--7--7--7--7--7/8\-7---------5------5---|
|----------------------------------------|----------------------------------------|
|
|Guitar 2
|----------------------------------------|----------------------------------------|
|------------12h13p12h---12~-------------|------------12h13p12h---15--13--12------|
|---------------------14-----------------|---------------------14-------------14--|
|----------------------------------------|----------------------------------------|
|----------------------------------------|----------------------------------------|
|----------------------------------------|----------------------------------------|



 Guitar 1
|----------------------------------------|----------------------------------------|
|----------------------------------------|----------------------------------------|
|--------------9/10\9---------9------9---|--------------9/10\9--------------------|
|--------------9/10\9---------9------9---|--------------9/10\9---------10-----7---|
|--7--7--7--7--7/8\-7---------7------7---|--7--7--7--7--7/8\-7---------10-----7---|
|----------------------------------------|-----------------------------8------5---|
|
|Guitar 2
|----------------------------------------|----------------------------------------|
|-12---------12h13p12h---12~-------------|------------12h13p12h---15--13--12------|
|---------------------14-----------------|---------------------14-------------14--|
|----------------------------------------|----------------------------------------|
|----------------------------------------|----------------------------------------|
|----------------------------------------|----------------------------------------|



Chorus Version (The Longer One, First Time Before Solos)

 Guitar 1
|-------------------|--------------------|-------------------|----------------------------|
|-------------------|--------------------|-------------------|----------------------------|
|--9----------------|----------4----5----|--7----------------|----------------------------|
|--9----------------|----------4----5----|--7----------------|----------------------------|
|--7----------------|----------2----3----|--5----------------|----------------------------|
|-------------------|--------------------|-------------------|----------------------------|
|
|Guitar 2
|-------------------|--------------------|-------------------|----------------------------|
|-------------------|--------------------|-------------------|----------------------------|
|-------------------|--------------------|-------------------|----11--12--14--14--12--11--|
|-------------------|--------------------|-------------------|----------------------------|
|-------------------|--------------------|-------------------|----------------------------|
|-------------------|--------------------|-------------------|----------------------------|


 Guitar 1                                                            
|-------------------|--------------------|-------------------|----------------------------|
|-------------------|--------------------|-------------------|----------------------------|
|--9----------------|--------------------|-------------------|----------------------------|
|--9----------------|----------9----5----|--7----------------|----------------------------|
|--7----------------|----------9----5----|--7----------------|----------------------------|
|-------------------|----------7----3----|--5----------------|----------------------------|
|
|Guitar 2
|-------------------|--------------------|-------------------|----------------------------|
|-------------------|--------------------|-------------------|----------------------------|
|-------------------|--------------------|-------------------|----11--12--14--14--12--11--|
|-------------------|--------------------|-------------------|----------------------------|
|-------------------|--------------------|-------------------|----------------------------|
|-------------------|--------------------|-------------------|----------------------------|


Solo 1 Rhythm:


|----------------------------|----------------------------|
|----------------------------|----------------------------|
|----------9/10\9---9----9---|----------9/10\9---7----7---|
|----------9/10\9---9----9---|----------9/10\9---7----7---|
|--7-7-7-7-7/8\-7---7----7---|--7-7-7-7-7/8\-7---5----5---|
|----------------------------|----------------------------|


                                                                    
|----------------------------|-----------------------------|
|----------------------------|-----------------------------|
|----------9/10\9---9----9---|----------9/10\9-------------|
|----------9/10\9---9----9---|----------9/10\9---10----7---|
|--7-7-7-7-7/8\-7---7----7---|--7-7-7-7-7/8\-7---10----7---|
|----------------------------|-------------------8-----5---|

Bridge Between Solo 1 And 2:

2x

 Guitar 1
|--------------------|---------------------|
|--------------------|---------------------|
|--------------------|---------------------|
|--9-----------------|--4------5----4------|
|--9-----------------|--4------5----4------|
|--7-----------------|--2------3----2------|
|
|Guitar 2
|--------------------|---------------------|
|--10b---------------|--7/-----8\---7------|
|--------------------|---------------------|
|--------------------|---------------------|
|--------------------|---------------------|
|--------------------|---------------------|

Solo 2 Rhythm:

Like Solo 1 Rhythm, but end like this:

|----------------------------|----------------------------|
|----------------------------|----------------------------|
|----------9/10\9---9----9---|----------9/10\9---7----7---|
|----------9/10\9---9----9---|----------9/10\9---7----7---|
|--7-7-7-7-7/8\-7---7----7---|--7-7-7-7-7/8\-7---5----5---|
|----------------------------|----------------------------|


                                                                    
|----------------------------|-----------------------------|
|----------------------------|-----------------------------|
|----------9/10\9---9----9---|----------9/10\9-------------|
|----------9/10\9---9----9---|----------9/10\9-------------|
|--7-7-7-7-7/8\-7---7----7---|--7-7-7-7-7/8\-7-------------|
|----------------------------|-----------------------------|

Solo 3 Rhythm:

Like Solo 1 Rythm

Interlude (Acoustic):
     
 Part 1
                                                  
|--------------------------|--------------------------|
|--------------------------|--------------------------|
|--------------------------|--------------------------|
|--------9-----9-----9-----|--------9-----9-----9-----|
|-----7-----7-----7-----7--|-----7-----7-----7-----7--|
|--0-----------------------|--0-----------------------|


                                                      
|--------------------------|--------------------------|
|--------------------------|--------------------------|
|--------------------------|--------------------------|
|--------9-----9-----9-----|--------9-----9-----9-----|
|-----7-----7-----7-----7--|-----7-----7-----7-----7--|
|--8-----------------------|--8-----------------------|


                                                      
|--------------------------|--------------------------|
|--------------------------|--------------------------|
|--------5-----5-----5-----|--------5-----5-----5-----|
|-----2-----2-----2-----2--|-----2-----2-----2-----2--|
|--0-----------------------|--0-----------------------|
|--------------------------|--------------------------|


                                                      
|--------------------------|--------------------------|
|--------------------------|--------------------------|
|--------------------------|--------------------------|
|--------9-----9-----9-----|--------9-----9-----9-----|
|-----7-----7-----7-----7--|-----7-----7-----7-----7--|
|--0-----------------------|--0-----------------------|

 Part 2

 Guitar 1
|--------------------------|--------------------------|
|--------------------------|--------------------------|
|--------------------------|--------------------------|
|--------9-----9-----9-----|--------9-----9-----9-----|
|-----7-----7-----7-----7--|-----7-----7-----7-----7--|
|--0-----------------------|--0-----------------------|
|
|Guitar 2
|--------------------------|--------------------------|
|--------------------------|--------------------------|
|--------------------------|-------------11-12--11-12-|
|--14----------------------|----------14--------------|
|--------------------------|--------------------------|
|--------------------------|--------------------------|



 Guitar 1
|--------------------------|--------------------------|
|--------------------------|--------------------------|
|--------------------------|--------------------------|
|--------9-----9-----9-----|--------9-----9-----9-----|
|-----7-----7-----7-----7--|-----7-----7-----7-----7--|
|--8-----------------------|--8-----------------------|
|
|Guitar 2
|--------------------------|--------------------------|
|--------------------------|--------------------------|
|--11------12--12----------|------------------11--12--|
|--------------------------|--------------------------|
|--------------------------|--------------------------|
|--------------------------|--------------------------|


 Guitar 1
|--------------------------|--------------------------|
|--------------------------|--------------------------|
|--------5-----------5-----|--------5-----------5-----|
|-----2-----2-----2-----2--|-----2-----2-----2-----2--|
|--0-----------0-----------|--0-----------0-----------|
|--------------------------|--------------------------|
|
|Guitar 2
|--------------------------|--------------------------|
|--------------------------|--------------------------|
|--------------------------|-------------11-12--11-12-|
|--14----------------------|----------14--------------|
|--------------------------|--------------------------|
|--------------------------|--------------------------|


 Guitar 1
|--------------------------|--------------------------|
|--------------------------|--------------------------|
|--------------------------|--------------------------|
|--------9-----9-----9-----|--------9-----9-----9-----|
|-----7-----7-----7-----7--|-----7-----7-----7-----7--|
|--0-----------------------|--0-----------------------|
|
|Guitar 2
|--------------------------|--------------------------|
|--------------------------|--------------------------|
|--11------12--12----------|--------------------------|
|--------------------------|--------------------------|
|--------------------------|--------------------14----|
|--------------------------|--------------------------|


 Part 3

 Guitar 1
|--------------------------|--------------------------|
|--------------------------|--------------------------|
|--------------------------|--------------------------|
|--------9-----------9-----|--------9-----9-----9-----|
|-----7-----7-----7-----7--|-----7-----7-----7-----7--|
|--0-----------0-----------|--0-----------------------|
|
|Guitar 2
|--------------------------|--------------------------|
|--------------------------|--------------------------|
|--------------------------|-------------11-12--11-12-|
|--14----------------------|----------14--------------|
|--------------------------|--------------------------|
|--------------------------|--------------------------|


 Guitar 1
|--------------------------|--------------------------|
|--------------------------|--------------------------|
|--------------------------|--------------------------|
|--------9-----9-----9-----|--------9-----9-----9-----|
|-----7-----7-----7-----7--|-----7-----7-----7-----7--|
|--8-----------------------|--8-----------------------|
|
|Guitar 2
|--------------------------|--------------------------|
|--------------------------|------------------12------|
|--11------12--12----------|----------------------12--|
|--------------------------|--------------------------|
|--------------------------|--------------------------|
|--------------------------|--------------------------|


 Guitar 1
|--------------------------|--------------------------|
|--------------------------|--------------------------|
|--------5-----------5-----|--------5-----------5-----|
|-----2-----2-----2-----2--|-----2-----2-----2-----2--|
|--0-----------0-----------|--0-----------0-----------|
|--------------------------|--------------------------|
|
|Guitar 2
|--------------------------|--------------------------|
|--------------------------|--------------------------|
|--------------------------|-------------11-12--11-12-|
|--14----------------------|----------14--------------|
|--------------------------|--------------------------|
|--------------------------|--------------------------|


 Guitar 1
|--------------------------|--------------------------|
|--------------------------|--------------------------|
|--------------------------|--------------------------|
|--------9-----9-----9-----|--------9-----9-----9-----|
|-----7-----7-----7-----7--|-----7-----7-----7-----7--|
|--0-----------------------|--0-----------------------|
|
|Guitar 2
|--------------------------|--------------------------|
|--------------------------|--------------------------|
|--11------12--------------|--------------------------|
|--------------14----------|--------------------------|
|--------------------------|--------------------------|
|--------------------------|--------------------------|


 Part 4


 Guitar 1
|--------------------------|--------------------------|
|--------------------------|--------------------------|
|--------------------------|--------------------------|
|--------9-----------9-----|--------9-----9-----9-----|
|-----7-----7-----7-----7--|-----7-----7-----7-----7--|
|--0-----------0-----------|--0-----------------------|
|
|Guitar 2
|--------------------------|--------------------------|
|--------------------------|--------------------------|
|--------------------------|-------------11-12--11-12-|
|--14----------------------|----------14--------------|
|--------------------------|--------------------------|
|--------------------------|--------------------------|


 Guitar 1
|--------------------------|--------------------------|
|--------------------------|--------------------------|
|--------------------------|--------------------------|
|--------9-----9-----9-----|--------9-----9-----9-----|
|-----7-----7-----7-----7--|-----7-----7-----7-----7--|
|--8-----------------------|--8-----------------------|
|
|Guitar 2
|--------------------------|--------------------------|
|--------------------------|------------------12------|
|--11------12--12----------|----------------------12--|
|--------------------------|--------------------------|
|--------------------------|--------------------------|
|--------------------------|--------------------------|


 Guitar 1
|--------------------------|--------------------------|
|--------------------------|--------------------------|
|--------5-----------5-----|--------5-----------5-----|
|-----2-----2-----2-----2--|-----2-----2-----2-----2--|
|--0-----------0-----------|--0-----------0-----------|
|--------------------------|--------------------------|
|
|Guitar 2
|--------------------------|--------------------------|
|--------------------------|--------------------------|
|--------------------------|-------------11-12--11-12-|
|--14----------------------|----------14--------------|
|--------------------------|--------------------------|
|--------------------------|--------------------------|


 Guitar 1
|--------------------------|--------------------------|
|--------------------------|--------------------------|
|--------------------------|--------------------------|
|--------9-----9-----9-----|--------9-----9-----9-----|
|-----7-----7-----7-----7--|-----7-----7-----7-----7--|
|--0-----------------------|--0-----------------------|
|
|Guitar 2
|--------------------------|--------------------------|
|--------------------------|--------------------------|
|--11---12-11--------------|--------------------------|
|---------------14---12-14-|--------------------------|
|--------------------------|--14----------------14----|
|--------------------------|--------------------------|

Interlude 2 (Distortion):

 Part 1 (2x)

 Guitar 1
|----------------------------------|----------------------------------|
|----------------------------------|----------------------------------|
|--9---9---9---9---9---9---9---9---|--9---9---9---9---9---9---9---9---|
|--9---9---9---9---9---9---9---9---|--9---9---9---9---9---9---9---9---|
|--7---7---7---7---7---7---7---7---|--7---7---7---7---7---7---7---7---|
|----------------------------------|----------------------------------|
|
|Guitar 2
|----------------------------------|----------------------------------|
|------12--12--12------12--12--12--|------12--12--12------12--12--12--|
|------------------14--------------|------------------14--------------|
|--14------------------------------|--14------------------------------|
|----------------------------------|----------------------------------|
|----------------------------------|----------------------------------|
 


 Guitar 1                                                    
|----------------------------------|----------------------------------|
|----------------------------------|----------------------------------|
|--5---5---5---5---5---5---5---5---|--5---5---5---5---5---5---5---5---|
|--5---5---5---5---5---5---5---5---|--5---5---5---5---5---5---5---5---|
|--3---3---3---3---3---3---3---3---|--3---3---3---3---3---3---3---3---|
|----------------------------------|----------------------------------|
|
|Guitar 2
|----------------------------------|----------------------------------|
|------12--12--12------12--12--12--|--12--15--13--12------------------|
|------------------14--------------|------------------14--12--11--12--|
|--14------------------------------|----------------------------------|
|----------------------------------|----------------------------------|
|----------------------------------|----------------------------------|


 Guitar 1                                                      
|----------------------------------|----------------------------------|
|----------------------------------|----------------------------------|
|----------------------------------|----------------------------------|
|--7---7---7---7---7---7---7---7---|--7---7---7---7---7---7---7---7---|
|--7---7---7---7---7---7---7---7---|--7---7---7---7---7---7---7---7---|
|--5---5---5---5---5---5---5---5---|--5---5---5---5---5---5---5---5---|
|
|Guitar 2
|----------------------------------|----------------------------------|
|------12--12--12------12--12--12--|------12--12--12------12--12--12--|
|------------------14--------------|------------------14--------------|
|--14------------------------------|--14------------------------------|
|----------------------------------|----------------------------------|
|----------------------------------|----------------------------------|

 Guitar 1                                                     
|----------------------------------|----------------------------------|
|----------------------------------|----------------------------------|
|--9---9---9---9---9---9---9---9---|--9---9---9---9---9---9---9---9---|
|--9---9---9---9---9---9---9---9---|--9---9---9---9---9---9---9---9---|
|--7---7---7---7---7---7---7---7---|--7---7---7---7---7---7---7---7---|
|----------------------------------|----------------------------------|
|
|Guitar 2
|----------------------------------|----------------------------------|
|------12--12--12------12--12--12--|--12--15--13--12------------------|
|------------------14--------------|------------------14--12--11--12--|
|--14------------------------------|----------------------------------|
|----------------------------------|----------------------------------|
|----------------------------------|----------------------------------|


 Part 2 

 Guitar 1
|--------------------------|--------------------------|
|--------------------------|--------------------------|
|--9--9--9--9--9--9--9--9--|--9--9--9--9--9--9--9--9--|
|--9--9--9--9--9--9--9--9--|--9--9--9--9--9--9--9--9--|
|--7--7--7--7--7--7--7--7--|--7--7--7--7--7--7--7--7--|
|--------------------------|--------------------------|
|
|Guitar 2
|--------------------------|--------------------------|
|--------------------------|--------------------------|
|--------------------------|-------------11-12--11-12-|
|--14----------------------|----------14--------------|
|--------------------------|--------------------------|
|--------------------------|--------------------------|


 Guitar 1
|--------------------------|--------------------------|
|--------------------------|--------------------------|
|--5--5--5--5--5--5--5--5--|--5--5--5--5--5--5--5--5--|
|--5--5--5--5--5--5--5--5--|--5--5--5--5--5--5--5--5--|
|--3--3--3--3--3--3--3--3--|--3--3--3--3--3--3--3--3--|
|--------------------------|--------------------------|
|
|Guitar 2
|--------------------------|--------------------------|
|--------------------------|--------------------------|
|-/14------12--12----------|------------------11--12--|
|--------------------------|--------------------------|
|--------------------------|--------------------------|
|--------------------------|--------------------------|


 Guitar 1
|--------------------------|--------------------------|
|--------------------------|--------------------------|
|--------------------------|--------------------------|
|--7--7--7--7--7--7--7--7--|--7--7--7--7--7--7--7--7--|
|--7--7--7--7--7--7--7--7--|--7--7--7--7--7--7--7--7--|
|--5--5--5--5--5--5--5--5--|--5--5--5--5--5--5--5--5--|
|
|Guitar 2
|--------------------------|--------------------------|
|--------------------------|--------------------------|
|--------------------------|-------------11-12--11-12-|
|--14----------------------|----------14--------------|
|--------------------------|--------------------------|
|--------------------------|--------------------------|


 Guitar 1
|--------------------------|--------------------------|
|--------------------------|--------------------------|
|--9--9--9--9--9--9--9--9--|--9--9--9--9--9--9--9--9--|
|--9--9--9--9--9--9--9--9--|--9--9--9--9--9--9--9--9--|
|--7--7--7--7--7--7--7--7--|--7--7--7--7--7--7--7--7--|
|--------------------------|--------------------------|
|
|Guitar 2
|--------------------------|--------------------------|
|--------------------------|--------------------------|
|--11------12--------------|--------------------------|
|--------------14----------|--------------------------|
|--------------------------|--------------------------|
|--------------------------|--------------------------|


 Part 3

 Guitar 1
|--------------------------|--------------------------|
|--------------------------|--------------------------|
|--9--9--9--9--9--9--9--9--|--9--9--9--9--9--9--9--9--|
|--9--9--9--9--9--9--9--9--|--9--9--9--9--9--9--9--9--|
|--7--7--7--7--7--7--7--7--|--7--7--7--7--7--7--7--7--|
|--------------------------|--------------------------|
|
|Guitar 2
|--------------------------|--------------------------|
|--------------------------|--------------------------|
|--------------------------|----------------------11--|
|--14----------------------|------------------14------|
|--------------------------|--------------------------|
|--------------------------|--------------------------|


 Guitar 1
|--------------------------|--------------------------|
|--------------------------|--------------------------|
|--5--5--5--5--5--5--5--5--|--5--5--5--5--5--5--5--5--|
|--5--5--5--5--5--5--5--5--|--5--5--5--5--5--5--5--5--|
|--3--3--3--3--3--3--3--3--|--3--3--3--3--3--3--3--3--|
|--------------------------|--------------------------|
|
|Guitar 2
|--------------------------|--------------------------|
|--------------------------|--------------------------|
|--12------14--12----------|------------------11--12--|
|--------------------------|--------------------------|
|--------------------------|--------------------------|
|--------------------------|--------------------------|


 Guitar 1
|--------------------------|--------------------------|
|--------------------------|--------------------------|
|--------------------------|--------------------------|
|--7--7--7--7--7--7--7--7--|--7--7--7--7--7--7--7--7--|
|--7--7--7--7--7--7--7--7--|--7--7--7--7--7--7--7--7--|
|--5--5--5--5--5--5--5--5--|--5--5--5--5--5--5--5--5--|
|
|Guitar 2
|--------------------------|--------------------------|
|--------------------------|----------12--------------|
|--14----------------------|------14------14-----12---|
|--------------------------|--------------------------|
|--------------------------|--------------------------|
|--------------------------|--------------------------|


 Guitar 1
|--------------------------|--------------------------|
|--------------------------|--------------------------|
|--9--9--9--9--9--9--9--9--|--9--9--9--9--9--9--9--9--|
|--9--9--9--9--9--9--9--9--|--9--9--9--9--9--9--9--9--|
|--7--7--7--7--7--7--7--7--|--7--7--7--7--7--7--7--7--|
|--------------------------|--------------------------|
|
|Guitar 2
|--------------------------|--------------------------|
|--------------------------|--------------------------|
|--11------12--12----------|--------------------------|
|--------------------------|--------------------------|
|--------------------------|--------------------------|
|--------------------------|--------------------------|


 Part 4


 Guitar 1
|---------------------------------|---------------------------|
|---------------------------------|---------------------------|
|--9---9---9---9---9---9---9---9--|---9--9--9--9--9--9--9--9--|
|--9---9---9---9---9---9---9---9--|---9--9--9--9--9--9--9--9--|
|--7---7---7---7---7---7---7---7--|---7--7--7--7--7--7--7--7--|
|---------------------------------|---------------------------|
|
|Guitar 2                                                         
|-----12--12--12------------------|---------------------------|
|-----------------15--13--12--13--|--12-----------------------|
|---------------------------------|---------------------------|
|---------------------------------|---------------------------|
|---------------------------------|---------------------------|
|---------------------------------|---------------------------|


 Guitar 1
|---------------------------------|----------------------------------|
|---------------------------------|----------------------------------|
|--5---5---5---5---5---5---5---5--|---5---5---5---5---5---5---5---5--|
|--5---5---5---5---5---5---5---5--|---5---5---5---5---5---5---5---5--|
|--3---3---3---3---3---3---3---3--|---3---3---3---3---3---3---3---3--|
|---------------------------------|----------------------------------|
|
|Guitar 2
|-----12--12--12------------------|----------------------------------|
|-----------------15--13--12--13--|--12--------------12----13--------|
|---------------------------------|------14--12--14------------------|
|---------------------------------|----------------------------------|
|---------------------------------|----------------------------------|
|---------------------------------|----------------------------------|



 Guitar 1
|---------------------------------|----------------------------------|
|---------------------------------|----------------------------------|
|---------------------------------|----------------------------------|
|--7---7---7---7---7---7---7---7--|--7---7---7---7---7---7---7---7---|
|--7---7---7---7---7---7---7---7--|--7---7---7---7---7---7---7---7---|
|--5---5---5---5---5---5---5---5--|--5---5---5---5---5---5---5---5---|
|
|Guitar 2
|-----12--12--12------------------|----------------------------------|
|-----------------15--13--12--13--|--12--------------12--13--12------|
|---------------------------------|------14--12--14--------------14--|
|---------------------------------|----------------------------------|
|---------------------------------|----------------------------------|
|---------------------------------|----------------------------------|


 Guitar 1
|---------------------------------|----------------------------------|
|---------------------------------|----------------------------------|
|--9---9---9---9---9---9---9---9--|--9----9---9---9---9---9---9---9--|
|--9---9---9---9---9---9---9---9--|--9----9---9---9---9---9---9---9--|
|--7---7---7---7---7---7---7---7--|--7----7---7---7---7---7---7---7--|
|---------------------------------|----------------------------------|
|
|Guitar 2
|---------------------------------|----------------------------------|
|--12-----------------------------|----------------------------------|
|-----------------------------11--|--12--14--12--11--12--11----------|
|----------14--12--14-----14------|--------------------------14--12--|
|---------------------------------|----------------------------------|
|---------------------------------|----------------------------------|


Start This Part Like This On 2nd Time:

 Guitar 1
|---------------------------------|---------------------------|
|---------------------------------|---------------------------|
|--9---9---9---9---9---9---9---9--|---9--9--9--9--9--9--9--9--|
|--9---9---9---9---9---9---9---9--|---9--9--9--9--9--9--9--9--|
|--7---7---7---7---7---7---7---7--|---7--7--7--7--7--7--7--7--|
|---------------------------------|---------------------------|
|
|Guitar 2                                                         
|-----12--12--12------------------|---------------------------|
|-----------------15--13--12--13--|--12-----------------------|
|---------------------------------|---------------------------|
|-14------------------------------|---------------------------|
|---------------------------------|---------------------------|
|---------------------------------|---------------------------|

 Part 5


 Guitar 1
|--------------------------|--------------------------|
|--------------------------|--------------------------|
|--9--9--9--9--9--9--9--9--|--9--9--9--9--9--9--9--9--|
|--9--9--9--9--9--9--9--9--|--9--9--9--9--9--9--9--9--|
|--7--7--7--7--7--7--7--7--|--7--7--7--7--7--7--7--7--|
|--------------------------|--------------------------|
|
|Guitar 2
|--------------------------|--------------------------|
|--------------------------|--------------------------|
|--------------------------|-------------11-12--11-12-|
|--14----------------------|----------14--------------|
|--------------------------|--------------------------|
|--------------------------|--------------------------|


 Guitar 1
|--------------------------|--------------------------|
|--------------------------|--------------------------|
|--5--5--5--5--5--5--5--5--|--5--5--5--5--5--5--5--5--|
|--5--5--5--5--5--5--5--5--|--5--5--5--5--5--5--5--5--|
|--3--3--3--3--3--3--3--3--|--3--3--3--3--3--3--3--3--|
|--------------------------|--------------------------|
|
|Guitar 2
|--------------------------|--------------------------|
|--------------------------|------------------12------|
|-/14------12--12----------|----------------------12--|
|--------------------------|--------------------------|
|--------------------------|--------------------------|
|--------------------------|--------------------------|


 Guitar 1
|--------------------------|--------------------------|
|--------------------------|--------------------------|
|--------------------------|--------------------------|
|--7--7--7--7--7--7--7--7--|--7--7--7--7--7--7--7--7--|
|--7--7--7--7--7--7--7--7--|--7--7--7--7--7--7--7--7--|
|--5--5--5--5--5--5--5--5--|--5--5--5--5--5--5--5--5--|
|
|Guitar 2
|--------------------------|--------------------------|
|--------------------------|--------------------------|
|--------------------------|-------------11-12--11-12-|
|--14----------------------|----------14--------------|
|--------------------------|--------------------------|
|--------------------------|--------------------------|


 Guitar 1
|---------------------------|--------------------------|
|---------------------------|--------------------------|
|--9--9--9--9--9--9--9--9---|--9--9--9--9--9--9--9--9--|
|--9--9--9--9--9--9--9--9---|--9--9--9--9--9--9--9--9--|
|--7--7--7--7--7--7--7--7---|--7--7--7--7--7--7--7--7--|
|---------------------------|--------------------------|
|
|Guitar 2
|---------------------------|---------------------------|
|----------12-12------12-12-|-------12-12-12------12-12-|
|----------------14---------|----------------14---------|
|--14-----------------------|---------------------------|
|---------------------------|---------------------------|
|---------------------------|---------------------------|

 Part 6 = Part 1


Outro:

 Guitar 1
|----------------------------------------|----------------------------------------|
|----------------------------------------|----------------------------------------|
|--------------9/10\9---------9------9---|--------------9/10\9---------7------7---|
|--------------9/10\9---------9------9---|--------------9/10\9---------7------7---|
|--7--7--7--7--7/8\-7---------7------7---|--7--7--7--7--7/8\-7---------5------5---|
|----------------------------------------|----------------------------------------|
|
|Guitar 2
|----------------------------------------|----------------------------------------|
|------------12h13p12h---12~-------------|------------12h13p12h---15--13--12------|
|---------------------14-----------------|---------------------14-------------14--|
|----------------------------------------|----------------------------------------|
|----------------------------------------|----------------------------------------|
|----------------------------------------|----------------------------------------|


Slow Down:

 Guitar 1
|----------------------------------------|----------------------------------------|
|----------------------------------------|----------------------------------------|
|--------------9/10\9---------9------9---|--------------9/10\9--------------------|
|--------------9/10\9---------9------9---|--------------9/10\9---------10-----7---|
|--7--7--7--7--7/8\-7---------7------7---|--7--7--7--7--7/8\-7---------10-----7---|
|----------------------------------------|-----------------------------8------5---|
|
|Guitar 2
|----------------------------------------|----------------------------------------|
|-12---------12h13p12h---12~-------------|------------12h13p12h---15--13--12------|
|---------------------14-----------------|---------------------14-------------14--|
|----------------------------------------|----------------------------------------|
|----------------------------------------|----------------------------------------|
|----------------------------------------|----------------------------------------|


 Guitar 1
|----------------------------------------|
|----------------------------------------|
|----------------------------------------|
|--2-------------------------------------|
|--2-------------------------------------|
|--0-------------------------------------|
|
|Guitar 2
|----------------------------------------|
|------------12h13p12h---12~-------------|
|---------------------14-----------------|
|----------------------------------------|
|----------------------------------------|
|----------------------------------------|
	  

Search Paypal
auto scroll beats size up size down change color hide chords drawings
tab show chords e-chords YouTube Clip e-chords hide all tabs e-chords go to top tab