Iron Maiden

home > Iron Maiden

Transylvania Bass Tab

Iron Maiden

Difficulty: ExpertExpert

by Timom

tuner correct add songbook print version text version save to e-mail
chordsukulelecavacokeyboardtabbassdrummharmonicsflute Guitar Pro
chords

Transylvania

Year: 1980 - Album: A Real Live Dead One

  		Tab explanations 
---------------------------------------------------------------------------- 
------- 
>   Accent               |  /   Slide up      |  w   whole note     | -3- 
Triplet 
.   Staccatto            |  \   Slide down    |  h   half note      | 6/8 
Time Sig 
h   Hammer-on/ pull off  |  :   Repeat        |  q   quarter note   |  * 
Fermata 
?   Harmonic             |  ~   slight bend   |  e   eigth note     | 
{}  tied notes           |  +   dotted note   |  s   sixteenth note |          
---------------------------------------------------------------------------- 
------- 
 
 
Transylvania ( Harris ) 
 ( From the album "Iron Maiden" )      
  
      q  q h    q q q q   q  q h    q q q q   q  q h    q q q q   q   h+ 
    ----------|---------|---------|---------|---------|---------|-----------| 
4/4 ----------|---------|---------|---------|---------|---------|-----------| 
    --5--r-r--|-r-r-3-8-|-5--r-r--|-r-r-3-8-|-5--r-r--|-r-r-3-8-|-5---r-----| 
    ----------|---------|---------|---------|---------|---------|-----------| 
 
 q q q q   q  h+    q q q q   q  h+    q q q q   q  h+    q q q q   q  h+ 
---------|--------|---------|--------|---------|--------|---------|---------| 
---------|--------|-------5-|--------|-------5-|--------|-------5-|---------| 
-r-r-3-8-|-7--r---|-r-r-5---|-7--r---|-r-r-5---|-7--r---|-r-r-5---|-7--r----| 
---------|--------|---------|--------|---------|--------|---------|---------| 
 
            - 3 -   - 3 -    
  r r r r   e e e  e  e e  e e e  e  e e   e e e  e e e  e e e  e  e e 
----------|------------------------------|-----------------------------| 
----------|------------------------------|-----------------------------| 
--r-r-3-5-|-7-7-7--7-10-9--7-7-7--7-10-9-|-5-5-5--5---5--7-7-7--7-10-9-| 
----------|------------------------------|----------7------------------| 
                           simile 
                                                 
                                - 3 -  - 3 -    - 3 -  - 3 - 
 e e e  e  e e  e e e  e  e e   e e e  e e e  e s s s  e e e 
------------------------------|------------------------7------| 
------------------------------|-----------------9-9-9----9-7--| 
-7-7-7--7-10-9--7-7-7--7-10-9-|-5-5-5--5---5--7---------------| 
------------------------------|----------7--------------------| 
 
   - 3 -  - 3 -    - 3 -  - 3 -     - 3 -  - 3 -    - 3 -  - 3 - 
 e s s s  e e e  e s s s  e e e   e s s s  e e e  e s s s  e e e 
--------------------------------|--------------------------------| 
--------------------------------|--------------------------------| 
-2-2-2-2--2-5-4--2-2-2-2--2-5-4-|-0-0-0-0--0------2-2-2-2--2-5-4-| 
--------------------------------|------------2-5-----------------| 
 
   - 3 -  - 3 -    - 3 -  - 3 -     - 3 -  - 3 -    - 3 -  -  3 - 
 e s s s  e e e  e s s s  e e e   e s s s  e e e  e s s s  e  e e 
--------------------------------|---------------------------------| 
--------------------------------|---------------------------------| 
-2-2-2-2--2-5-4--2-2-2-2--2-5-4-|-0-0-0-0--0-----------------10-9-| 
--------------------------------|------------2-5--7-7-7-7--7------| 
 
      - 3 -  -  3 -    - 3 -  -  3 -     - 3 -  - 3 -    - 3 -  -  3 - 
    e s s s  e  e e  e s s s  e  e e   e s s s  e e e  e s s s  e  e e 
||-----------------------------------|---------------------------------| 
||.----------------------------------|---------------------------------| 
||.-7-7-7-7--7-10-9--7-7-7-7--7-10-9-|-5-5-5-5--5---5--7-7-7-7--7-10-9-| 
||-----------------------------------|------------7--------------------| 
 
   - 3 -  -  3 -    - 3 -  -  3 -     - 3 -  - 3 -    - 3 -  - 3 - 
 e s s s  e  e e  e s s s  e  e e   e s s s  e e e  e s s s  e e e 
----------------------------------|--------------------------7------| 
----------------------------------|-------------------9-9-9----9-7--| 
-7-7-7-7--7-10-9--7-7-7-7--7-10-9-|-5-5-5-5--5---5--7---------------| 
----------------------------------|------------7--------------------| 
 
   - 3 -  - 3 -    - 3 -  - 3 -     - 3 -  - 3 -    - 3 -  - 3 - 
 e s s s  e e e  e s s s  e e e   e s s s  e e e  e s s s  e e e 
--------------------------------|--------------------------------| 
--------------------------------|--------------------------------| 
-2-2-2-2--2-5-4--2-2-2-2--2-5-4-|-0-0-0-0--0------2-2-2-2--2-5-4-| 
--------------------------------|------------2-5-----------------| 
 
   - 3 -  - 3 -    - 3 -  - 3 -     - 3 -  - 3 -    - 3 -  - 3 - 
 e s s s  e e e  e s s s  e e e   e s s s  e e e  e s s s  e e e  
--------------------------------|--------------------------------| 
--------------------------------|--------------------------------| 
-2-2-2-2--2-5-4--2-2-2-2--2-5-4-|-0-0-0-0--0------2-2-2-2--2-----| 
--------------------------------|------------2-5-------------2-5-| 
 
 q q  e  s  s  q   q q e s s q   q q e s s q   q q e s s q   q q e s s q 
-----------------|-------------|-------------|-------------|--------------| 
-.-.-------------|-.-.-2-2-2-2-|-.-.-5-5-5-5-|-.-.-2-2-2-2-|-.-.-5-5-5-5--| 
-7-5-10-10-10-10-|-3-5---------|-7-5---------|-3-5---------|-7-5----------| 
-----------------|-------------|-------------|-------------|--------------| 
 
                                           
q q e s s q    q q e s s q         q  q       
--------------|-------------|     ---------||    
-.-.-2-2-2-2--|-.-.-5-5-5-5-| 2/4 -.--.---.|| 
-3-5----------|-7-5---------|     -3--5---.||  
--------------|-------------|     ---------|| 
 
      q   h+    q q q q   q   h+    q q q q   q   h+    q q q q   q   h+ 
    ----------|---------|---------|---------|---------|---------|-----------| 
4/4 ----------|-------5-|---------|-------5-|---------|-------5-|-----------| 
    --7---r---|-r-r-5---|-7---r---|-r-r-5---|-7---r---|-r-r-5---|-7---r-----| 
    ----------|---------|---------|---------|---------|---------|-----------| 
 
 q q q q   q q q e{e   e}e q e e e{e   q}e e e e e{e   e}e e e e e e{e 
---------|-----------|---------------|---------------|-----------------| 
---------|-----------|-------7-9-7---|---------------|---------5-7-5---| 
-r-r-3-5-|-7-7-7-7-7-|-7-7-7-------5-|-5-5-5-5-5-5-5-|-5-5-5-5-------3-| 
---------|-----------|---------------|---------------|-----------------| 
 
 e}e q e e e{e   e}e q e e e e   e e e s s s s s s e e    e e e e e e e e 
---------------|---------------|-------7-9-9-9-9-9-7----|------------------| 
-------3-5-3---|-------5-7-5---|---7-9---------------9--|------------------| 
-3-3-3-------5-|-5-5-5-------7-|-7----------------------|-7-7-7-7-7-7-7-7--| 
---------------|---------------|------------------------|------------------| 
 
 e e e e e e e e   e e e e e e{e   e}e e e e e e{e   e}e q e e e{e   
-----------------|---------------|---7-5-----------|---------------| 
---------5-7-9---|-------------7-|-7-----7-5-------|-------2-3-5---| 
-7-7-7-7-------5-|-5-5-5-5-5-5---|-----------7-5-3-|-3-3-3-------5-| 
-----------------|---------------|-----------------|---------------| 
 
 e}e q e e e e   e e e e e e e e   e e  e e  e e  e e   e e e e e e e e 
---------------|-----------9-7---|--------------------|-----------------| 
-------4-5-7---|-------7-9-----7-|-9-7----------------|-----------------| 
-5-5-5-------7-|-7-7-7-----------|-----10-9-10-9----7-|-7-7-7-7-7-7-7-7-| 
---------------|-----------------|---------------10---|-----------------| 
 
 e e e e e e e e   e e e e e e e e   e e e e e e e{e   e}e q e e e{e 
-----------------|---------------7-|-5---------------|---------------| 
---------5-7-9---|-----------------|---7-5---5-------|-------2-3-5---| 
-7-7-7-7-------5-|-5-5-5-5-5-5-5---|-------7---7-5-3-|-3-3-3-------5-| 
-----------------|-----------------|-----------------|---------------| 
 
 e}e e e e e e e   e e e e e e e e   s s s s s s s s s s s s s s s s 
-----------------|-----------------|---------------------------------| 
---------4-5-7---|-----------------|---------------------------------| 
-5-5-5-5-------7-|-7-7-7-7-7-7-7-7-|-7-7-7-7-7-7-7-7-7-7-7-7-7-7-7-7-| 
-----------------|-----------------|---------------------------------| 
 
 q q q q q     q  e e e e e{e   e}e e e e e e e   e e e e e e e{e    
------------|-----------------|-----------------|-----------------| 
------------|---------5-7-9---|-----------------|---------4-5-7---| 
-7-r-7-r-7--|--r--7-7-------5-|-5-5-5-5-5-5-5-5-|-5-5-5-5-------3-| 
------------|-----------------|-----------------|-----------------| 
 
 e}e q e e e{e   e}e e e e e e e   e e e e e e e e   e e e e e e e e 
---------------|-----------------|-----------------|-----------------| 
-------2-3-5---|---------4-5-7---|-----------------|-----------------| 
 
-3-3-3-------5-|-5-5-5-5-------7-|-7-7-7-7-7-7-7-7-|-7-7-7-7-7-5---7-| 
---------------|-----------------|-----------------|-------------7---| 
 
 e e e e e e e e   e e e e e e q   e e e e e e e{e   e}e e e e e e e 
-----------------|---------------|---------------5-|-5---------------| 
-----------------|---------5-7-9-|-----------------|---7-5---5-------| 
-7-7-7-7-7-7-7-7-|-7-7-7-7-------|-5-5-5-5-5-5-5---|-------7---7-5-3-| 
-----------------|---------------|-----------------|-----------------| 
 
 e e e e e e e{e   e}e e e e e e{e   e}e s s e e e s s e   q   h+    w 
-----------------|-----------------|---------------------|-------|-------| 
---------2-3-5---|---------4-5-7---|---------------------|-------|-------| 
-3-3-3-3-------5-|-5-5-5-5-------7-|-7-7-7-7-7-7-7-7-7-7-|-7---r-|---r---| 
-----------------|-----------------|---------------------|-------|-------| 
 
 q   h+    w     q   h+  q   h+  q   h+  s s s s s s s s s s s s s s e 
-------|-------|-------|-------|-------|-------------------------------| 
-------|-------|-------|-------|-------|-------------------------------| 
-5---r-|---r---|-3---r-|-5---r-|-7---r-|-7-7-7-7-7-7-7-7-7-7-7-7-7-7-7-| 
-------|-------|-------|-------|-------|-------------------------------| 
 
 e e e e e e e e   e e q e e e{e   e}e e e e e e e   e e e e e q {e 
-----------------|---------------|-----------------|-7-5------------| 
-----------------|-------5-9-7---|---------------7-|-----7-5--------| 
-7-7-7-7-7-7-7-7-|-7-7-7-------5-|-5-5-5-5-5-5-5---|---------7-5--3-| 
-----------------|---------------|-----------------|----------------| 
 
 e}e q e e e{e   e}e q e e e e   e e e s s s s s s e e    e e e e e e e e 
---------------|---------------|-------7-9-9-9-9-9-7----|------------------| 
-------2-5-3---|-------4-5-7---|---7-9---------------9--|------------------| 
-3-3-3-------5-|-5-5-5-------7-|-7----------------------|-7-7-7-7-7-7-7-7--| 
---------------|---------------|------------------------|------------------| 
 
 e e e e e e e e   e e e e e e e e   e e e e e e e{e   e}e q e e e{e 
-----------------|-----------------|-----------------|---------------| 
---------5-7-9---|-----------------|---------4-5-7---|-------2-3-5---| 
-7-7-7-7-------5-|-5-5-5-5-5-5-5-5-|-5-5-5-5-------3-|-3-3-3-------5-| 
-----------------|-----------------|-----------------|---------------| 
 
 e}e e e e e e e   e e e e e e e e   e e e e e e e e 
-----------------|-----------------|-----------------| 
---------4-5-7---|-----------------|-----------------| 
-5-5-5-5-------7-|-7-7-7-7-7-7-7-7-|-7-7-7-7-7-7-7-5-| 
-----------------|-----------------|-----------------| 
 
 q q q q q     q  e e e e e{e   e}e e e e e e e   e e e e e q {e    
------------|-----------------|---------------7-|-7-5------------| 
------------|---------5-7-9---|-----------------|-----7-5--------| 
-7-r-7-r-7--|--r--7-7-------5-|-5-5-5-5-5-5-5---|---------7-5--3-| 
------------|-----------------|-----------------|----------------| 
 
e}e q e e e{e   e}e q e e e e   e e e s s s s s s e e   e  e  e  e  e  e  e  e 
--------------|---------------|-----------------------|-----------------------| 
------2-5-3---|-------4-5-7---|-----------------------|-r-12-14-14-14-14-14-14| 
3-3-3-------5-|-5-5-5-------7-|-7-7-7-7-7-7-7-7-7-7-7-|-----------------------| 
--------------|---------------|-----------------------|--------------------- 
--|   
 
  e  e  e  e  q  q      e  e  e  e  e  e  e  e    e  e  e  e  q  q 
--------------------|--------------------------|--------------------| 
-14-14-14-12-----r--|--12-12-12-12-12-12-12-12-|-12-12-12-10-----r--| 
-------------14-----|--------------------------|-------------12-----| 
--------------------|--------------------------|--------------------| 
 
   e  e  e  e   q  q    e  e  e  e  q  q     e  e  e  e  e  e  e  e 
---------------------|--------------------|-------------------------| 
--10-10-10--8------r-|-12-12-12-10-----r--|-14-14-14-14-14-14-14-14-| 
---------------10----|-------------12-----|-------------------------| 
---------------------|--------------------|-------------------------| 
 
  e  e  s  s  e  q  q   e  e  e  e  e  e  e  e    e  e  e  e  q  q 
----------------------|------------------------|-------------------| 
-14-14-14-14-12-----r-|-r-12-14-14-14-14-14-14-|-14-14-14-12-----r-| 
----------------14----|------------------------|-------------14----| 
----------------------|------------------------|-------------------| 
 
  e  e  e  e  e  e  e  e    e  e  e  e  q  q 
-------------------------|--------------------| 
-12-12-12-12-12-12-12-12-|-12-12-12-10-----r--| 
-------------------------|-------------12-----| 
-------------------------|--------------------| 
 
   e  e  e  e   q  q    e  e  e  e  q  q     e  e  e  e  e  e  e  e 
---------------------|--------------------|-------------------------| 
--10-10-10--8------r-|-12-12-12-10-----r--|-14-14-14-14-14-14-14-14-| 
---------------10----|-------------12-----|-------------------------| 
---------------------|--------------------|-------------------------| 
 
  s  s  s  s  s  s  e  e  e  q 
--------------------------------| 
-14-14-14-14-14-14-14-12-----r--| 
-------------------------14-----| 
--------------------------------| 
 
 e e e e e e e e   e e e e e e e{e   e}e e e e e e e   e e e e e q {e 
-----------------|-----------------|-----------------|-7-5------------| 
-----------------|---------5-9-7---|---------------7-|-----7-5--------| 
-7-7-7-7-7-7-7-7-|-7-7-7-7-------5-|-5-5-5-5-5-5-5---|---------7-5--3-| 
-----------------|-----------------|-----------------|----------------| 
 
 e e e e e e e{e   e}e e e e e e{e   e}e  e  e  e  e  e  e     
-----------------|-----------------|------------------------| 
---------2-3-5---|---------4-5-7---|-----14-14-14-14-14-14--| 
-3-3-3-3-------5-|-5-5-5-5-------7-|-7-7--------------------| 
-----------------|-----------------|------------------------| 
 
   e  e  s  s  s  s  e  e  q 
-----------------------------| 
--14-14-14-14-14-14-14-12----| 
--------------------------14-| 
-----------------------------| 
 
 e e e e e e e e   e e e e e e e{e   e}e e e e e e e   e e e e e q {e 
-----------------|-----------------|-----------------|-7-5------------| 
-----------------|---------5-9-7---|---------------7-|-----7-5--------| 
-7-7-7-7-7-7-7-7-|-7-7-7-7-------5-|-5-5-5-5-5-5-5---|---------7-5--3-| 
-----------------|-----------------|-----------------|----------------| 
 
 e e e e e e e{e   e}e e e e e e{e   e}s s s s s s s s s s s s s s 
-----------------|-----------------|-------------------------------| 
---------2-3-5---|---------4-5-7---|-------------------------------| 
-3-3-3-3-------5-|-5-5-5-5-------7-|-7-7-7-7-7-7-7-7-7-7-7-7-7-7-7-| 
-----------------|-----------------|-------------------------------| 
                      ritard. 
 
 s s s s s s s s s      *        q q q q     h h     q *      q q q * 
-------------------|---------|------------|-------|--------|-----------| 
-------------------|---------|------------|-------|--------|-----------| 
-7-7-7-7-7-7-7-7-7-|----7----|--10-9-7-5--|--3-2--|--7-----|-----------| 
-------------------|---------|------------|-------|----0---|--0-0-0-0--| 
 

	  

Search Paypal
auto scroll beats size up size down change color hide chords drawings
tab show chords e-chords YouTube Clip e-chords hide all tabs e-chords go to top tab