Nirvana

All Apologies Acoustic Tab

Nirvana

Difficulty: ExpertExpert

by vandcatarino

tuner correct add songbook print version text version save to e-mail
chordsukulelecavacokeyboardtabbassdrumsharmonicsflute Guitar Pro
close

there isn't a video lesson for this song

request
chords

All Apologies Acoustic

  		Tuning:1/2 step then drop D (Db,Ab,Db,Gb,Bb,eb) though it may just be 1/2 step down 
on Unplugged In NY 

(YOU COULD PICK THE OPEN STRING 'Db' WHILE PICKING THE 9's AND 12's BUT ON 
'UNPLUGGED IN NEW YORK' KURT DOES THE OPEN STRING THING AND PAT SMEAR DOES THE RIFF ABOVE.) 



----------------------------------------------------------------------------- 
			            THE TAB 
----------------------------------------------------------------------------- 
Ok now for the songs itself: 
(Listen to the CD or watch the recording of Unplugged to find out the timing) 


Intro: 
eb|-------------------------------|----------------------------------| 
Bb|-------------------------------|----------------------------------| 
Gb|-------------------------------|----------------------------------| 
Db|-------------------------------|--------------10/12--12--10--9----| 
Ab|-9--9--10--9--10/12--12--10--9-|-9--9--10--9----------------------| 
Db|-------------------------------|----------------------------------| 

eb|-------------------------------|----------------------------------| 
Bb|-------------------------------|----------------------------------| 
Gb|-------------------------------|---------------11--11--9----------| 
Db|-------------------------------|--------------------------12------| 
Ab|-9--9--10--9--10/12--12--10--9-|-9--9--10--9----------------------| 
Db|-------------------------------|----------------------------------| 

eb|-------------------------------|----------------------------------| 
Bb|-------------------------------|----------------------------------| 
Gb|-------------------------------|----------------------------------| 
Db|-------------------------------|--------------10/12--12--10--9----| 
Ab|-9--9--10--9--10/12--12--10--9-|-9--9--10--9----------------------| 
Db|-------------------------------|----------------------------------| 

eb|-------------------------------|----------------------------------| 
Bb|-------------------------------|----------------------------------| 
Gb|-------------------------------|---------------11--11--9----------| 
Db|-------------------------------|--------------------------12------| 
Ab|-9--9--10--9--10/12--12--10--9-|-9--9--10--9----------------------| 
Db|-------------------------------|----------------------------------| 




VERSE 1:(Lyric/tab timing might be ever so slightly out.) 
    What  else   should   i    be? 
eb|-------------------------------|----------------------------------| 
Bb|-------------------------------|----------------------------------| 
Gb|-------------------------------|----------------------------------| 
Db|-------------------------------|--------------10/12--12--10--9----| 
Ab|-9--9--10--9--10/12--12--10--9-|-9--9--10--9----------------------| 
Db|-------------------------------|----------------------------------| 
    All______    Apologies___ 
eb|-------------------------------|----------------------------------| 
Bb|-------------------------------|----------------------------------| 
Gb|-------------------------------|---------------11--11--9----------| 
Db|-------------------------------|--------------------------12------| 
Ab|-9--9--10--9--10/12--12--10--9-|-9--9--10--9----------------------| 
Db|-------------------------------|----------------------------------| 
    What  else    should  I  say? 
eb|-------------------------------|----------------------------------| 
Bb|-------------------------------|----------------------------------| 
Gb|-------------------------------|----------------------------------| 
Db|-------------------------------|--------------10/12--12--10--9----| 
Ab|-9--9--10--9--10/12--12--10--9-|-9--9--10--9----------------------| 
Db|-------------------------------|----------------------------------| 
    Everyone_   is       gay__ 
eb|-------------------------------|----------------------------------| 
Bb|-------------------------------|----------------------------------| 
Gb|-------------------------------|---------------11--11--9----------| 
Db|-------------------------------|--------------------------12------| 
Ab|-9--9--10--9--10/12--12--10--9-|-9--9--10--9----------------------| 
Db|-------------------------------|----------------------------------| 
    What else    should I write? 
eb|-------------------------------|----------------------------------| 
Bb|-------------------------------|----------------------------------| 
Gb|-------------------------------|----------------------------------| 
Db|-------------------------------|--------------10/12--12--10--9----| 
Ab|-9--9--10--9--10/12--12--10--9-|-9--9--10--9----------------------| 
Db|-------------------------------|----------------------------------| 
    I don't__    have the right____ 
eb|-------------------------------|----------------------------------| 
Bb|-------------------------------|----------------------------------| 
Gb|-------------------------------|---------------11--11--9----------| 
Db|-------------------------------|--------------------------12------| 
Ab|-9--9--10--9--10/12--12--10--9-|-9--9--10--9----------------------| 
Db|-------------------------------|----------------------------------| 
    What  else   should  I  be? 
eb|-------------------------------|----------------------------------| 
Bb|-------------------------------|----------------------------------| 
Gb|-------------------------------|----------------------------------| 
Db|-------------------------------|--------------10/12--12--10--9----| 
Ab|-9--9--10--9--10/12--12--10--9-|-9--9--10--9----------------------| 
Db|-------------------------------|----------------------------------| 
    A__l__l______        Apo__log__ies_______ 
eb|-------------------------------|--------------------------------------| 
Bb|-------------------------------|--------------------------------------| 
Gb|-------------------------------|---------------11--11--9--------------| 
Db|-------------------------------|--------------------------12--5-5-5-5-| 
Ab|-9--9--10--9--10/12--12--10--9-|-9--9--10--9------------------5-5-5-5-| 
Db|-------------------------------|------------------------------5-5-5-5-| 



Chorus (If your guitar is in 1/2 step down tuing use chord 355xxx for Chorus: 
   G  
            In the sun___         in the sun   I feel as one 
eb|--------------------------------------------------------------|- 
Bb|--------------------------------------------------------------|- 
Gb|--------------------------------------------------------------|- 
Db|-5-5-5-x--5-5-5-5--------5-5-5-x--5-5-5-5--5-5-5--5-5-5-5-----|- 
Ab|-5-5-5-x--5-5-5-5--------5-5-5-x--5-5-5-5--5-5-5--5-5-5-5-----|- 
Db|-5-5-5-x--5-5-5-5--------5-5-5-x--5-5-5-5--5-5-5--5-5-5-5-----|- 

            In the sun_____,        In the sun__________ 
eb|--------------------------------------------------------------|- 
Bb|--------------------------------------------------------------|- 
Gb|--------------------------------------------------------------|- 
Db|-5-5-5---5-5-5-5--------5-5-5---5-5-5-5----5-5--5-5-5-5-------|- 
Ab|-5-5-5---5-5-5-5--------5-5-5---5-5-5-5----5-5--5-5-5-5-------|- 
Db|-5-5-5---5-5-5-5--------5-5-5---5-5-5-5----5-5--5-5-5-5-------|- 


BRIDGE (For this you have to get the pauses right, single note bits might be wrong 
but i tried to get them accurate, if in doubt just pick random high strings 
   A 
   Married___               Buried___ 
eb|-0---------------------|-0--------------------------|- 
Bb|-2----2-------2-----2--|-2---2---2------------------|- 
Gb|-2----2-------2-----2--|-2---2----------------------|- 
Db|-2---------0-----------|-2----------2----2----------|- 
Ab|-0---------0------0----|-0---------------0---0----0-|- 
Eb|-----------------------|----------------------------|- 



VERSE 1:(Lyric/tab timing might not be in sync.) 
    I wish    I   was  like  you 
eb|-------------------------------|----------------------------------| 
Bb|-------------------------------|----------------------------------| 
Gb|-------------------------------|----------------------------------| 
Db|-------------------------------|--------------10/12--12--10--9----| 
Ab|-9--9--10--9--10/12--12--10--9-|-9--9--10--9----------------------| 
Db|-------------------------------|----------------------------------| 
    E__asily__    amused_______ 
eb|-------------------------------|----------------------------------| 
Bb|-------------------------------|----------------------------------| 
Gb|-------------------------------|---------------11--11--9----------| 
Db|-------------------------------|--------------------------12------| 
Ab|-9--9--10--9--10/12--12--10--9-|-9--9--10--9----------------------| 
Db|-------------------------------|----------------------------------| 
    Find my   nest   of   salt 
eb|-------------------------------|----------------------------------| 
Bb|-------------------------------|----------------------------------| 
Gb|-------------------------------|----------------------------------| 
Db|-------------------------------|--------------10/12--12--10--9----| 
Ab|-9--9--10--9--10/12--12--10--9-|-9--9--10--9----------------------| 
Db|-------------------------------|----------------------------------| 
    Everythings_   my   falut__ 
eb|-------------------------------|----------------------------------| 
Bb|-------------------------------|----------------------------------| 
Gb|-------------------------------|---------------11--11--9----------| 
Db|-------------------------------|--------------------------12------| 
Ab|-9--9--10--9--10/12--12--10--9-|-9--9--10--9----------------------| 
Db|-------------------------------|----------------------------------| 
    I'll  take  all  the  blame 
eb|-------------------------------|----------------------------------| 
Bb|-------------------------------|----------------------------------| 
Gb|-------------------------------|----------------------------------| 
Db|-------------------------------|--------------10/12--12--10--9----| 
Ab|-9--9--10--9--10/12--12--10--9-|-9--9--10--9----------------------| 
Db|-------------------------------|----------------------------------| 
    Aqua__ seafoam__   shame___ 
eb|-------------------------------|----------------------------------| 
Bb|-------------------------------|----------------------------------| 
Gb|-------------------------------|---------------11--11--9----------| 
Db|-------------------------------|--------------------------12------| 
Ab|-9--9--10--9--10/12--12--10--9-|-9--9--10--9----------------------| 
Db|-------------------------------|----------------------------------| 
    Sunburn_  the  freezer  burn_ 
eb|-------------------------------|----------------------------------| 
Bb|-------------------------------|----------------------------------| 
Gb|-------------------------------|----------------------------------| 
Db|-------------------------------|--------------10/12--12--10--9----| 
Ab|-9--9--10--9--10/12--12--10--9-|-9--9--10--9----------------------| 
Db|-------------------------------|----------------------------------| 
   Cho___king   on   the   a_shes   of    her    enemies______ 
eb|-------------------------------|--------------------------------------| 
Bb|-------------------------------|--------------------------------------| 
Gb|-------------------------------|---------------11--11--9--------------| 
Db|-------------------------------|--------------------------12----------| 
Ab|-9--9--10--9--10/12--12--10--9-|-9--9--10--9--------------------------| 
Db|-------------------------------|--------------------------------------| 


Chorus (for this either use 555xxx Or 355xxx: 
   G  
            In the sun___         in the sun   I feel as one 
eb|--------------------------------------------------------------|- 
Bb|--------------------------------------------------------------|- 
Gb|--------------------------------------------------------------|- 
Db|-5-5-5-x--5-5-5-5--------5-5-5-x--5-5-5-5--5-5-5--5-5-5-5-----|- 
Ab|-5-5-5-x--5-5-5-5--------5-5-5-x--5-5-5-5--5-5-5--5-5-5-5-----|- 
Db|-5-5-5-x--5-5-5-5--------5-5-5-x--5-5-5-5--5-5-5--5-5-5-5-----|- 

            In the sun_____,        In the sun__________ 
eb|--------------------------------------------------------------|- 
Bb|--------------------------------------------------------------|- 
Gb|--------------------------------------------------------------|- 
Db|-5-5-5---5-5-5-5--------5-5-5---5-5-5-5----5-5--5-5-5-5-------|- 
Ab|-5-5-5---5-5-5-5--------5-5-5---5-5-5-5----5-5--5-5-5-5-------|- 
Db|-5-5-5---5-5-5-5--------5-5-5---5-5-5-5----5-5--5-5-5-5-------|- 



BRIDGE (For this you have to get the pauses right, single note bits might be wrong 
but i tried to get them accurate, if in doubt just pick random high strings 
   A   
   Married___                     Buried___            Married__ 
eb|-0---------------------------|-0---------------------0--------------|- 
Bb|-2-------------2------------2|-2--2----2-------------2--------------|- 
Gb|-2----2----2---2----2-------2|-2--2----2-------2-----2---------2--2-|- 
Db|-2-----------0------2-2---2--|-2------------2--2-----2-------2----2-|- 
Ab|-0------0---------------0----|-0----------0----------0--0--0--------|- 
Eb|-----------------------------|--------------------------------------|- 

    Buried 
eb|-0---------------0--0-0-0---0-0-0---0---0---0-----------|- 
Bb|-2----2-----2----2--2-2-2---2-2-2---2---2---2-----------|- 
Gb|-2----2---2-2----2--2-2-2---2-2-2---2---2---2-----------|- 
Db|-2--------2------2--2-2-2---2-2-2---2---2---2-----------|- 
Ab|-0---------------0--0-0-0---0-0-0---0---0---0-----------|- 
Eb|--------------------------------------------------------|- 


OUTRO: 

eb|-------------------------------|----------------------------------| 
Bb|-------------------------------|----------------------------------| 
Gb|-------------------------------|----------------------------------| 
Db|-------------------------------|--------------10/12--12--10--9----| 
Ab|-9--9--10--9--10/12--12--10--9-|-9--9--10--9----------------------| 
Db|-------------------------------|----------------------------------| 

eb|-------------------------------|----------------------------------| 
Bb|-------------------------------|----------------------------------| 
Gb|-------------------------------|---------------11--11--9----------| 
Db|-------------------------------|--------------------------12------| 
Ab|-9--9--10--9--10/12--12--10--9-|-9--9--10--9----------------------| 
Db|-------------------------------|----------------------------------| 




      All    in    all    is    all    we   all    are 
eb|-------------------------------|----------------------------------| 
Bb|-------------------------------|----------------------------------| 
Gb|-------------------------------|----------------------------------| 
Db|-------------------------------|--------------10/12--12--10--9----| 
Ab|-9--9--10--9--10/12--12--10--9-|-9--9--10--9----------------------| 
Db|-------------------------------|----------------------------------| 
      All    in    all    is    all    we   all    are 
eb|-------------------------------|----------------------------------| 
Bb|-------------------------------|----------------------------------| 
Gb|-------------------------------|---------------11--11--9----------| 
Db|-------------------------------|--------------------------12------| 
Ab|-9--9--10--9--10/12--12--10--9-|-9--9--10--9----------------------| 
Db|-------------------------------|----------------------------------| 


      All    in    all    is    all    we   all    are 
eb|-------------------------------|----------------------------------| 
Bb|-------------------------------|----------------------------------| 
Gb|-------------------------------|----------------------------------| 
Db|-------------------------------|--------------10/12--12--10--9----| 
Ab|-9--9--10--9--10/12--12--10--9-|-9--9--10--9----------------------| 
Db|-------------------------------|----------------------------------| 
      All    in    all    is    all    we   all    are 
eb|-------------------------------|----------------------------------| 
Bb|-------------------------------|----------------------------------| 
Gb|-------------------------------|---------------11--11--9----------| 
Db|-------------------------------|--------------------------12------| 
Ab|-9--9--10--9--10/12--12--10--9-|-9--9--10--9----------------------| 
Db|-------------------------------|----------------------------------| 


      All    in    all    is    all    we   all    are 
eb|-------------------------------|----------------------------------| 
Bb|-------------------------------|----------------------------------| 
Gb|-------------------------------|----------------------------------| 
Db|-------------------------------|--------------10/12--12--10--9----| 
Ab|-9--9--10--9--10/12--12--10--9-|-9--9--10--9----------------------| 
Db|-------------------------------|----------------------------------| 
      All    in    all    is    all    we   all    are 
eb|-------------------------------|----------------------------------| 
Bb|-------------------------------|----------------------------------| 
Gb|-------------------------------|---------------11--11--9----------| 
Db|-------------------------------|--------------------------12------| 
Ab|-9--9--10--9--10/12--12--10--9-|-9--9--10--9----------------------| 
Db|-------------------------------|----------------------------------| 


    All  in  all  is  all  we all  are 
eb|------------------------------------| 
Bb|------------------------------------| 
Gb|------------------------------------| 
Db|------------------------------------| 
Ab|-9-------9----9----------9--9--9----| 
Db|-0---0---0----0---0---0--0-----0----| 

      
   All in all is all we all are     All in all is all we all are 
eb|-------------------------------|-------------------------------| 
Bb|-------------------------------|-------------------------------| 
Gb|-------------------------------|-------------------------------| 
Db|-------------------------------|-------------------------------| 
Ab|-9-----9-------9-----9-------9-|-------9-----9-9-9-9--9--------| 
Db|-0--0-----0--0----0-----0--0---|-0--0-----0-----------0--0-----| 



   All in all is all we all are     All in all is all we all are 
eb|-------------------------------|-------------------------------| 
Bb|-------------------------------|-------------------------------| 
Gb|-------------------------------|-------------------------------| 
Db|-------------------------------|-------------------------------| 
Ab|-------9-----9-------------9---|-------------------------------| 
Db|-0--0-----0-----0--------0-----|-0-----------------------------| 


   All in all is all we all are     All in all is all we are 
eb|-------------------------------|-------------------------------| 
Bb|-------------------------------|-------------------------------| 
Gb|-------------------------------|-------------------------------| 
Db|-------------------------------|-------------------------------| 
Ab|-------------------------------|-------------------------------| 
Db|-------------------------------|-------------------------------| 


    All in all is all we all are_____ 
eb|-----------------------------------| 
Bb|-----------------------------------| 
Gb|-----------------------------------| 
Db|-----------------------------------| 
Ab|-----------------------------------| 
Db|-----------------------------------| 
	  

Full key step upFull key step up
Half key step upHalf key step up
Half key step downHalf key step down
Full key step downFull key step down
Search Paypal
auto scroll beats size up size down change color hide chords drawings
tab show chords e-chords YouTube Clip e-chords hide all tabs e-chords go to top tab

share with facebook