Nirvana

home > Nirvana

Very Ape Bass Tab

Nirvana

Difficulty: nolevelnolevel

by KURT+CONBAI

tuner correct add songbook print version text version save to e-mail
chordsukulelecavacokeyboardtabbassdrummharmonicsflute Guitar Pro
chords

Very Ape

Year: 1993 - Album: In Utero

  		Drop D tuning (D A D G) 
 
Verse 
G:----------------- 
D:----------------- 
A:----------------- 
D:-4-6-6---4-7-7--- 
 
After verse ("I'm very ape, I'm very nice") 
G:--------------------- 
D:--------------------- 
A:--------------------- 
D:-4-4-4-4-2-2-2-9-8-4- 
 
Chorus 
G:---------------------------- 
D:---------------------------- 
A:-----2/5-5-5-5/9-9-9-------- 
D:-6-6-----------------4-3-4-- 
	  

Full key step upFull key step up
Half key step upHalf key step up
Half key step downHalf key step down
Full key step downFull key step down
Search Paypal
auto scroll beats size up size down change color hide chords drawings
tab show chords e-chords YouTube Clip e-chords hide all tabs e-chords go to top tab