Nirvana

Formaldehyde Tab

Nirvana

Difficulty: nolevelnolevel

by meta11eir0

tuner correct add songbook print version text version save to e-mail
chordsukulelecavacokeyboardtabbassdrumsharmonicsflute Guitar Pro
close

there isn't a video lesson for this song

request
chords

Formaldehyde

  		Artist-Nirvana 
Formaldehyde 
 
Baixe meio tom para tocar essa musica 
 
Intro 
e------------------------------------------------------- 
b------------------------------------------------------- 
g-------------------------------------------------------         
d---------3-----------3-3-----------3-----------3-3----- 
a-------3---3-------3-----3-------3---3-------3-----3--- 
e---1-----------1-------------1-----------1------------- x2 
 
e----------------------------------------------------------- 
b---7--6--5--4----5--4--3--2---3--2--1--0--0-----0--1--0---- 
g---------------------------------------------3-----------3-       
d----------------------------------------------------------- 
a----------------------------------------------------------- 
e----------------------------------------------------------- 
 
e----------------------------------------------------------- 
b---4--3--3--2---3--2--1--0---2--1--0--------------0-------- 
g--------------------------------------3--3--2--3-----3--2--         
d-----------------------------------------------------------  
a----------------------------------------------------------- 
e----------------------------------------------------------- 
 
e----------------------------------------------------------- 
b---10--9--8---10--9--8--7---8--7--6--5-5--4--5--6--5--4---- 
g-----------------------------------------------------------        
d-----------------------------------------------------------  
a----------------------------------------------------------- 
e----------------------------------------------------------- 
 
e----------------------------------------------------------- 
b---9--8--7--6---7--6--5--4---5--4--3--2-2--1--2--3--2--1--- 
g-----------------------------------------------------------         
d-----------------------------------------------------------  
a----------------------------------------------------------- 
e----------------------------------------------------------- 
 
Depois repita tudo e pronto. 
 

	  

Search Paypal
auto scroll beats size up size down change color hide chords drawings
tab show chords e-chords YouTube Clip e-chords hide all tabs e-chords go to top tab

share with facebook