Nirvana

home > Nirvana

Heart-Shaped Box Bass Tab

Nirvana

Difficulty: EasyEasy

by meta11eir0

tuner correct add songbook print version text version save to e-mail
chordsukulelecavacokeyboardtabbassdrumsharmonicsflute Guitar Pro
chords

Heart-Shaped Box

  		Nirvana 
Heart-Shaped Box 
 
 
Verso (she eyes me like.) 
|-------------------------------------| 
|-------------------------------------|           x8 
|-0-0-0-0-----------------------------| 
|---------3-3-3-3-0-0-0-0-0-0-0-0-----| 
 
Refrao (Hey.Wait!)  
|-----------------------------------| 
|-----4~----------------------------|        x6 
|-0-0-------3~-----3~-----4---------| 
|-------3-3----0-0----0-5--3--------| 
 
Ponte (your advice.) 
|------------------------------------| 
|------------------------------------|       x2 
|------------------------------------| 
|-3-3-3-3-3-3-3-3-0-0-0-0-0-0-0-0----| 
 
Verso 2 (meat-eating orchards.) 
|-------------------------------------| 
|-------------------------------------|           x8 
|-0-0-0-0-----------------------------| 
|---------3-3-3-3-0-0-0-0-0-0-0-0-----| 
 
Refrao (Hey.Wait)  
|-----------------------------------| 
|-----4~----------------------------|       x6 
|-0-0-------3~-----3~-----4---------| 
|-------3-3----0-0----0-5--3--------| 
 
Ponte (your advice.) 
|-----------------------------------| 
|-----------------------------------|       x2 
|-----------------------------------| 
|-3-3-3-3-3-3-3-3-0-0-0-0-0-0-0-0---|                 
 
Solo Guitar 
|--------------------------------------| 
|-----4~-------------------------------|         
|-0-0-------3~-----3~-----4------------| 
|-------3-3----0-0----0-5--3-----------| 
 
Verso 3 (quando a guitarra segurar a última nota do solo) 
|------------------------------------| 
|------------------------------------|         x10 
|-0-0-0-0----------------------------| 
|--------3-3-3-3-0-0-0-0-0-0-0-0-----| 
 
Refrao (Hey.Wait)  
|-----------------------------------| 
|-----4~----------------------------|        x6 
|-0-0-------3~-----3~-----4---------| 
|-------3-3----0-0----0-5--3--------| 
 
Ponte (your advice.)  
|-----------------------------------| 
|-----------------------------------|            x4 
|-----------------------------------| 
|-3-3-3-3-3-3-3-3-0-0-0-0-0-0-0-0---|                  
	  

Search Paypal
auto scroll beats size up size down change color hide chords drawings
tab show chords e-chords YouTube Clip e-chords hide all tabs e-chords go to top tab