Nirvana

home > Nirvana

In Bloom Bass Tab

Nirvana

Difficulty: BeginnerBeginner

by Lagarto

tuner correct add songbook print version text version save to e-mail
chordsukulelecavacokeyboardtabbassdrummharmonicsflute Guitar Pro
chords

In Bloom

Year: 1991 - Album: Nevermind

  		Antes da abertura principal existe uma parte da musica diferente 
 
E|-8---8-8--5~------3---3-3--6~---|--------------------3---3-3--6-| 
A|--------------------------------|---3---3-3--0~-----------------| 
D|--------------------------------|-------------------------------| 
G|--------------------------------|-------------------------------| 
 
Na abertura o baixo vem junto com a guitarra assim 
 
E|-8-8-8-8-8--8-4-4-4-4-4--4-----------------------6-6-6-6-| 
A|---------------------------8-8-8-8-8--8-4-4-4-4----------| 
D|---------------------------------------------------------| 
G|---------------------------------------------------------| 
 
Quando o verso começa, a guitarra para e o baixo continua o mesmo 
 
E|-8-8-8-8-8--8-4-4-4-4-4--4-----------------------6-6-6-6-| 
A|---------------------------8-8-8-8-8--8-4-4-4-4----------| 
D|---------------------------------------------------------| 
G|---------------------------------------------------------|  
  
No refrão fica assim  
 
E|-8---8-8--9-5---5---------|-8---8-8--9-5---5---------|  
A|------------------0-0-0-0-|------------------3-3-3-3-| 
D|--------------------------|--------------------------| 
G|--------------------------|--------------------------| 
 
Enquanto o kurt canta "he knows not what it means" o baixo è: 
 
E|----------1-----------------------3-3--1~-| 
A|-5--5--5-----8~------5--5--5--8-----------|  
D|--------------------------------3---------| 
G|------------------------------------------| 
 
Aí volta para a parte diferente do começo da musica 
 
E|-8---8-8--5~------3---3-3--6~---|--------------------3---3-3--6-| 
A|--------------------------------|---3---3-3--0~-----------------| 
D|--------------------------------|-------------------------------| 
G|--------------------------------|-------------------------------| 
 
No solo da guitarra, o baixo fica igual ao do verso 
 
E|-8-8-8-8-8--8-4-4-4-4-4--4-----------------------6-6-6-6-| 
A|---------------------------8-8-8-8-8--8-4-4-4-4----------| 
D|---------------------------------------------------------| 
G|---------------------------------------------------------|  
	  

Search Paypal
auto scroll beats size up size down change color hide chords drawings
tab show chords e-chords YouTube Clip e-chords hide all tabs e-chords go to top tab