Nirvana

home > Nirvana

About a Girl Bass Tab

Nirvana

Difficulty: IntermediateIntermediate

by KURT+CONBAI

tuner correct add songbook print version text version save to e-mail
chordsukulelecavacokeyboardtabbassdrummharmonicsflute Guitar Pro
chords

About a Girl

Year: 1989 - Album: Bleach

(Kurt Cobain)

  		Play 4 times 
G-----------------------------------| 
D-----------------------------------| 
A-----------------------------------| 
E---0-0-0-3-3-3-3---0-0-0-3-3-3-3---| 
 
   Play 4 times 
 
G--------------------|-------------------------------| 
D-------5-------5----|-------------------------------| 
A---7-------7-------7|--4----------------------------| 
E--------------------|---------4--------2-2----2-2---| 
 
G-------------------------------------------------------------------| 
D-------------------------------------------------------------------| 
A---4-----------------------------------------------------7-7-7-7---| 
E--------4------------2----2--------2----2------0---(0)-------------| 
 
G-----------------------------------------------------------| 
D-----------------------------------------------------------| 
A----------3----3--3----------------------------------------| 
E---5-5-5--------------0---0-0--3--3-3-3--0-0-3-------333---| 
 
Now just repeat till the song is over 
	  

Search Paypal
auto scroll beats size up size down change color hide chords drawings
tab show chords e-chords YouTube Clip e-chords hide all tabs e-chords go to top tab