Nirvana

home > Nirvana

Mexican Seafood Bass Tab

Nirvana

Difficulty: ExpertExpert

by meta11eir0

tuner correct add songbook print version text version save to e-mail
chordsukulelecavacokeyboardtabbassdrumsharmonicsflute Guitar Pro
chords

Mexican Seafood

Year: 1992 - Album: Incesticide

  		NIRVANA 
Mexican Seafood 
 
Intro 
Gb|---2------------------|------------------------------| 
Db|----------------------|------------------------------|  
Ab|-0---0----------------|--0-000-000-----0-000-000-----|  
Eb|-------3-5-3-2-222320-|------------3-------------3---|                                  
                                                        
Riff 1 
Gb|----------------------| 
Db|----------------------| 
Ab|-----4/6-4/6---876----| 
Eb|--0----------4--------| 
 
Riff 2 
Gb|----------------------|----------------------| 
Db|----------------------|----------------------| 
Ab|---------6666654------|---------6-6-654------|  
Eb|--0-03-3--------------|--0-03-3--3-3---------| 
 
 No final da musica 
Gb|----------------------|---| 
Db|----------------------|---|  
Ab|----------------------|---|  
Eb|--4--4-0124--4--------|-5~| deixe soar 
^ 
|| 
PRESTE ATENCAO NA AFINACAO!! 
 
Os riffs devem ser feitos durante os riffs da guitarra 

	  

Search Paypal
auto scroll beats size up size down change color hide chords drawings
tab show chords e-chords YouTube Clip e-chords hide all tabs e-chords go to top tab