Nirvana

home > Nirvana

Moist Vagina Tab

Nirvana

Difficulty: IntermediateIntermediate

tuner correct add songbook print version text version save to e-mail
chordsukulelecavacokeyboardtabbassdrummharmonicsflute Guitar Pro
chords

Moist Vagina

Year: 1996 - Album: All Apologies/Rape Me

  		E{------------0-----------0------2-------2--------2----} 
B{---------------------------------------2--------2----} 
G{-----------------------------------------------------} 
D{-----------------------------------------------------} 
A{-----------------------------------------------------} 
E{--0-2--0-2----0-2--0-2----0-2-----0-2------0-2-------} 
 
O dedilhado inicial fica assim, o kurt toca abafado até entra a bateria 
Depois vem o primeiro verso: 
 
 
 
|--333333---111111----| 
|--333333---111111----| 
|--444444---333333----| 
|--555555---333333----| 
|--555555---111111----| 
|--333333---111111----| 
 
?she has a moist vagina....? 
 
 
agora volta pro dedilhado 
 
E{-------2-------2-------1--------} 
B{-------2-------2-------0--------} 
G{--------------------------------} 
D{--------------------------------} 
A{--------------------------------} 
E{--0-2-----0-2------0-2-----0-2--} 
 
 
Segundo verso: 
 
|--333333---111111----| 
|--333333---111111----| 
|--444444---333333----| 
|--555555---333333----| 
|--555555---111111----| 
|--333333---111111----| 
 
 
Novamente o Dedilhado: 
 
e{-------2-------2-------2--------} 
B{-------2-------2-------2--------} 
G{--------------------------------} 
D{--------------------------------} 
A{--------------------------------} 
E{--0-2-----0-2------0-2-----0-2--} 
 
 
 
 
 
 
Agora vem a parte do refrão q o Kurt fica gritando 
 
|--333333---111111-----------------------------------------------------| 
|--333333---111111-----------------------------------------------------| 
|--444444---333333-------------3b------------333333---3b-?3b--3b-------| 
|--555555---333333---2-4-2-4-2-4-------55555-333333-2-4-2-4-2-4--------| 
|--555555---111111---2-4-2-4-2-4-(...)-55555-111111-2-4-2-4-2-4-(...)--| 
|--333333---111111---0-2-0-2-0-2-------33333--------0-2-0-2-0-2--------| 
 
 
?Marijuanaaaaa.....? 
 
 
Agora volta pro dedilhado, depois repete o primeiro verso da musica: 
 
|------------------2------2----| 
|------------------2------2----| 
|------------------------------| 
|------------------------------| 
|------------------------------| 
|-0-2---0-2---0-2----0-2-------| 
 
 
|--333333---111111----| 
|--333333---111111----| 
|--444444---333333----| 
|--555555---333333----| 
|--555555---111111----| 
|--333333---111111----| 
 
?she has a moist vagina....? 
 
 
 
e{-------2-------2-------2---------0-2-0--} 
B{-------2-------0-------2----------------} 
G{-----------------------0----------------} 
D{----------------------------------------} 
A{----------------------------------------} 
E{--0-2-----0-2------0-2-----0-2----------} 
 
 
 
|--333333---111111-----------------------------------------------------| 
|--333333---111111-----------------------------------------------------| 
|--444444---333333-------------3b------------333333---3b-?3b--3b-------| 
|--555555---333333---2-4-2-4-2-4-------55555-333333-2-4-2-4-2-4--------| 
|--555555---111111---2-4-2-4-2-4-(...)-55555-111111-2-4-2-4-2-4-(...)--| 
|--333333---111111---0-2-0-2-0-2-------33333--------0-2-0-2-0-2--------| 
 
?Marijuanaaaaa...? 
 
 
 
 
 
 
 
E por ultimo, o solo: 
 
|-------------------------------------------------------------------------10-10-10-10-| 
|7/8/9-?7/8/9-?7/8/9?-7/8/9--6-6-6-6?7/8/9-9b?-7/8/9-9b-8-7?7/8/9-9b-8-7--------------| 
|-------------------------------------------------------------------------------------| 
|-------------------------------------------------------------------------------------| 
|-------------------------------------------------------------------------------------| 
|-------------------------------------------------------------------------------------| 
 
Esse solo o kurt uso bastante improvisação, pode ser q esteja um tom acima ou abaixo dependendo de cada guitara... caso esteja um to acima é só tocar tudo uma casa antes. 
 
 
*************************************************************************************** 
 
Moist Vagina 
(k. cobain) 
 
 
She has a moist vagina  
I particularly enjoy the circumference  
I'll be sucking the warts off her anus  
I prefer her to any other  
Marijuana  
 
She had a moist vagina  
I prefered her to any other  
 
Marijuana  
 
 
 
___________________________________________________________ 
Correção: Roberto Do Vale Móssa ([email protected]) 

	  

Search Paypal
auto scroll beats size up size down change color hide chords drawings
tab show chords e-chords YouTube Clip e-chords hide all tabs e-chords go to top tab