Nirvana

home > Nirvana

Moist Vagina Bass Tab

Nirvana

Difficulty: AdvancedAdvanced

by meta11eir0

tuner correct add songbook print version text version save to e-mail
chordsukulelecavacokeyboardtabbassdrummharmonicsflute Guitar Pro
chords

Moist Vagina

Year: 1996 - Album: All Apologies/Rape Me

  		Nirvana 
Moist Vagina 
 
Verso 
G----------------------------------------------- 
D----------------------------------------------- 
A----------------------------------------------- 
E--0----2---------0-----2----------0------2----- 
 
G------------------------------------------------------------------------- 
D------------------------------------------------------------------------- 
A-----------------------------------------3--3---3--3---3--3---3--3------- 
E---5---5------5--5--5--5--5--5------------------------------------------- 
 
Refrao 
G------------------------------------- 
D------------------------------------- 
A------------------------------------- 
E---0----2--2-------0----2--2--------- 
 
… isso, a musica inteira ť feita so por esses dois riffs 

	  

Search Paypal
auto scroll beats size up size down change color hide chords drawings
tab show chords e-chords YouTube Clip e-chords hide all tabs e-chords go to top tab