Nirvana

home > Nirvana

Aneurysm Bass Tab

Nirvana

Difficulty: nolevelnolevel

by KURT+CONBAI

tuner correct add songbook print version text version save to e-mail
chordsukulelecavacokeyboardtabbassdrummharmonicsflute Guitar Pro
chords

Aneurysm

  		G-------------------------------------| 
D-------------------------------------| 
A-----------3-3-3-3--2-2-2-2--0-0-0-0-| 
E-2-(2)-2-2---------------------------| 
 
G------------------------------------------------------------------| 
D------------------------------------------------------------------| 
A-2-2-2-2-2-2-2-2-2-2-2-2-2-2-2-2--5-5-5-5-5-5-5-5-5-5-5-5-5-5-5-5-| 
E------------------------------------------------------------------| 
 
G-----------------------------| 
D-----------------------------| 
A-----2-2-2-2-0-0-0-0-2-2-2-2-| 
E-3-2-------------------------| 
 
G---------------| 
D---------------| 
A---------------| 
E-0---0---0---0-| 
	  

Search Paypal
auto scroll beats size up size down change color hide chords drawings
tab show chords e-chords YouTube Clip e-chords hide all tabs e-chords go to top tab