Nirvana

home > Nirvana

Pen Cap Chew Bass Tab

Nirvana

Difficulty: nolevelnolevel

by meta11eir0

tuner correct add songbook print version text version save to e-mail
chordsukulelecavacokeyboardtabbassdrumsharmonicsflute Guitar Pro
chords

Pen Cap Chew

  		Nirvana 
Pen Cap Chew 
 
Afinaçao: Eb Ab Db Gb 
 
Verso/Refrao: 
G|-----------------------------------| 
D|-----------------------------------| 
A|-----------------------------------| 
E|--1h1h1h1--------------------------| 
 
Interlúdio: 
G|-----------------------------------| 
D|--------------------------1-1-4-4--| 
A|--3-3-1-1-----1-1------------------| 
E|----------3-3-----1-1-4-4----------| 
 
G|---------------------------| 
D|----------1h1h1h1h4h4h4h4--| 
A|--3-3-3-3------------------| 
E|---------------------------| 
 
Divirta-se 

	  

Full key step upFull key step up
Half key step upHalf key step up
Half key step downHalf key step down
Full key step downFull key step down
Search Paypal
auto scroll beats size up size down change color hide chords drawings
tab show chords e-chords YouTube Clip e-chords hide all tabs e-chords go to top tab