Nirvana

home > Nirvana

Sliver Bass Tab

Nirvana

Difficulty: BeginnerBeginner

by Lagarto

tuner correct add songbook print version text version save to e-mail
chordsukulelecavacokeyboardtabbassdrummharmonicsflute Guitar Pro
chords

Sliver

  		A abertura e o primeiro verso possuem o mesmo baixo 
 
E|----------1--1-1--------------------| 
A|-3--3-3----------3--3-0--0-0-0-| 
D|--------------------------------------| 
G|--------------------------------------| 
 
O refrão é a parte que o kurt fica cantando "grandma take me to home" 
 
E|-------1-1---------------1----------| 
A|-3-3-------3-------3-3----3-3-0-| 
D|--------------------------------------| 
G|--------------------------------------| 
 
 

	  

Search Paypal
auto scroll beats size up size down change color hide chords drawings
tab show chords e-chords YouTube Clip e-chords hide all tabs e-chords go to top tab