Nirvana

Run Rabbit, Run Tab

Nirvana

Difficulty: nolevelnolevel

by weezer+pillows

tuner correct add songbook print version text version save to e-mail
chordsukulelecavacokeyboardtabbassdrumsharmonicsflute Guitar Pro
close

there isn't a video lesson for this song

request
chords

Run Rabbit, Run

  		Run Rabbit, Run 
by Nirvana 

~ - let ring 
b - bend 

STANDARD TUNING 

Verse 
|--0~---0~---0~---0~--| 
|--5~---5~---5~---5~--| 
|--7~---7~---7~---7~--|keep repeating 
|---------------------| 
|---------------------| 
|---------------------| 

Chorus 
|---------------------------| 
|---------------------------| 
|----------4-4-4-4-6-6-6-6--| 
|--4-4-4-4-4-4-4-4-6-6-6-6--| x4 
|--4-4-4-4-2-2-2-2-4-4-4-4--| 
|--2-2-2-2------------------| 

Bridge 
|-----------------------| 
|-----------------------| 
|-----------------------| 
|----4------------------| x3 
|------0-2-0-0-2-0-2----| 
|--2-----------------2--| 

|------------------------------ 
|------------------------------ 
|--6-6-6-6--4-4-4-4--4b-------- 
|--6-6-6-6--4-4-4-4--4b-------- 
|--4-4-4-4--2-2-2-2--2b--4----- 
|------------------------2-2b-- 

	  

Search Paypal
auto scroll beats size up size down change color hide chords drawings
tab show chords e-chords YouTube Clip e-chords hide all tabs e-chords go to top tab

share with facebook