Nirvana

home > Nirvana

Spank Thru Bass Tab

Nirvana

Difficulty: EasyEasy

by meta11eir0

tuner correct add songbook print version text version save to e-mail
chordsukulelecavacokeyboardtabbassdrummharmonicsflute Guitar Pro
chords

Spank Thru

  		Nirvava 
Spank Thru 
 
Intro: 
G|----------------------|-----------------------------------| 
D|--/7--------/7--------|--7---7-7-7---7-7-5---5-5----------| 
A|----------------------|--------------------------5---5-5--| 
E|----------------------|-----------------------------------| 
 
Interlúdio: 
G|--------------------------------------------------------------------- 
D|--------------------------------------------------------------------- 
A|--5---5-5-5-5-5-5---------------------------------------------------- 
E|------------------5---5-5-5-5-5-5-1---1-1-1-1-1-1-3---3-3-3-3-3-3-3-- 
 
  ------7--5-----------------------------------------------------------| 
  -----------7-5-7--7-7--7-7-7-3------5-5-5-5-5-5-5-5-5-5-5-5-5-5-5-5--| 
  --5------------------------------------------------------------------| 
  ---------------------------------------------------------------------| 
 
Verso: 
G|---------------------------------| 
D|-----------5--------------5------| 
A|-----5-------5------5-------5----| 
E|--0----3-------3-0----3-------3--| 
 
Refrao: 
G|--------------------------------------------------------------- 
D|--------------------------------------------------------------- 
A|--2---2-2-2-1-0--5---5-5-5-0-0-0-1-2---2-2-2-1-0--5-5-5-------- 
E|--------------------------------------------------------------- 
 
  ---------------------------------------------------------- 
  ---------------------------------------------------------- 
  --0-0-1-2---2-2-2-1-0--5---5-5-5-0-0-0-1-2---2-2-2-1-0---- 
  ---------------------------------------------------------- 
 
  -------------------|-------------------------------------------- 
  -------------------|-------------------------------------------- 
  -------------------|-------------------------------------------- 
  --3-3-3-3-1-1-1-1--|--3-3-3-3-1-1-1-1-0----------------0-------- 
	  

Search Paypal
auto scroll beats size up size down change color hide chords drawings
tab show chords e-chords YouTube Clip e-chords hide all tabs e-chords go to top tab