Nirvana

home > Nirvana

Been A Son Tab

Nirvana

Difficulty: ExpertExpert

by KURT+CONBAI

tuner correct add songbook print version text version save to e-mail
chordsukulelecavacokeyboardtabbassdrummharmonicsflute Guitar Pro
chords

Been A Son

  		Verses:
                        
repeat many times
D|---0--0-----------0---(0)--0--------|
A|---0--0---3-2-0---0---(0)--0---3-2-0|
D|---0--0-----------0---(0)--0--------|


Chorus:

E|-------------------------
B|-------------------------
G|-------------------------   Repeat
D|---5-5--3--X-2--2--------
A|---5-5--3--X-2--2--3-2-0-
D|---5-5--3--X-2--2--------

Solo-
Baixo afinado em DAdGBe
D|-0-0-10-9-7/12-12/0

Been A Son
 

She should have stayed away from friends
She should have had more time to spend
She should have died when she was born
She should have worn the crown of thorns
She should have been a son
She should have been a son
She should have been a son
She should have been a son
She should have stood out in the crowd
She should have made her mother proud
She should have fallen on her stance
She should have had another chance
She should have been a son
She should have been a son
She should have been a son
She should have been a son

	  

Search Paypal
auto scroll beats size up size down change color hide chords drawings
tab show chords e-chords YouTube Clip e-chords hide all tabs e-chords go to top tab