Nirvana

Junkyard Tab

Nirvana

Difficulty: nolevelnolevel

tuner correct add songbook print version text version save to e-mail
chordsukulelecavacokeyboardtabbassdrumsharmonicsflute Guitar Pro
close

there isn't a video lesson for this song

request
chords

Junkyard

  		verso: 
  
e|------0---------0------ 
B|------0---------0------ 
G|----------------------- 
D|--2-2---33--2-2---33--- 
A|--2-2---33--2-2---33--- 
E|--0-0---110-0-0---110--   
  
REFRÃO 
  
você pode dar um intervalo em lugar de arranhando a corda emudecida se você quiser...  
  
e|------------ 
B|------------ 
G|------------ 
D|--5555x444-- 
A|--5555x444-- 
E|--3333x222-- 
 
 
_______________________________________________________ 
Contribuição: André Feliciano Vascontim([email protected]) 
	  

Search Paypal
auto scroll beats size up size down change color hide chords drawings
tab show chords e-chords YouTube Clip e-chords hide all tabs e-chords go to top tab

share with facebook