Nirvana

home > Nirvana

Blandest Tab

Nirvana

Difficulty: nolevelnolevel

by meta11eir0

tuner correct add songbook print version text version save to e-mail
chordsukulelecavacokeyboardtabbassdrumsharmonicsflute Guitar Pro
chords

Blandest

Year: 2005 - Album: Sliver: The Best Of The Box

  		Nirvana 
Blandest 
 
 
Intro e Verse: 
E|------------| 
B|------------|    
G|------------|     
D|------------|   toque esse riff 3 vezes e depois mais 5 vezes fazendo 
A|----4-7-4---|   "sons estranhos" entre eles. 
E|----------6-|   Quem conhece a música sabe o que estou falando... 
 
 
Refrao                          * 
E|----------------------------------2--| 
B|----------------------------------2--| 
G|----------------------------------2--|  x4 
D|----------------------2--------------| 
A|----2-3-4-3-2-0-2-3-4---4-3-2-0------| 
E|--------------------------------2----| 
                                * 
 (Nota: (b) significa bend nas notas indicadas) 
D|--------------------------------------------| 
A|--------------------------------------------|   
E|-2b-0-0-0-0-2b-0-0-0-0-2b-0-0-0-0-2b-0-0-0-0| 
 
D|-----------------| 
A|-------6b-6b-6b-0| x4 
E|-4-7-4-----------| 
 
Depois disso toque o riff da introducao algumas vezes e pronto 
	  

Search Paypal
auto scroll beats size up size down change color hide chords drawings
tab show chords e-chords YouTube Clip e-chords hide all tabs e-chords go to top tab