Nirvana

home > Nirvana

Come On Death Tab

Nirvana

Difficulty: nolevelnolevel

by Tico+dark+Gines

tuner correct add songbook print version text version save to e-mail
chordsukulelecavacokeyboardtabbassdrummharmonicsflute Guitar Pro
chords

Come On Death

  		INTRO - Come on Death 
 
E------------------------------------- 
B------------------------------------- 
G------------------------------------- 
D------------------------------------- 
A------------------------------------- 
E-5-5-x-4-4-4-x-7-7-7-x-3-3-3-x------- 
 
Surly, I'm so surly, and I'm so surly... 
 
 
 
E------------- 
B------------- 
G------------- 
D-7--6--9--5-- 
A-7--6--9--5-- 
E-5--4--7--3-- 
 
(Deaaaaath, Ohaaaaaaahhhh, Ohaaaaaaaahhh.) 
 
 
 
COME ON DEATH (Letra) 
 
Surly 
I am so surly, and I am so surly 
And come on life in, and come on 
Deaaaaaaaaaaath 
Ohaaaaaahhhhhhh 
Ohaaaaaahhhhhhh 
 
Surly, and I am so surly 
And I am so surly 
And come on life in, and come on... 
Nooooo, nooooo, nooooo, nooo. 
 
Surly, and I am so surly 
And I am so surly 
And I am so surly, ohaaaaaaaaaaahhhh. 
 
Death, death, death, death 
Come on death, come on death 
Come on death, come on death 
Surly, surly, surly, surly 
 
I'm does finishing to hell 
And I'm does, and I'm does hell, hell 
Heeelllllllll... 
 
Come on death - Ohaaaaahhh 
Come on death - Deaaaaaath 
 
Thiago Silva dos Santos 
[email protected] 
Nirvana na cabeša...YEAH!!! 
	  

Search Paypal
auto scroll beats size up size down change color hide chords drawings
tab show chords e-chords YouTube Clip e-chords hide all tabs e-chords go to top tab