Nirvana

home > Nirvana

Plateau Bass Tab

Nirvana

Difficulty: nolevelnolevel

by meta11eir0

tuner correct add songbook print version text version save to e-mail
chordsukulelecavacokeyboardtabbassdrummharmonicsflute Guitar Pro
chords

Plateau

Year: 1994 - Album: Unplugged In New York

  		Nirvana 
Plateau 
    
Intro/Verso (escute a mesica pra pegar o tempo) 
G:--------------------------------------------| 
D:--------------------------------------------| 
A:--7-7---10-10---7-7---10-10---7-7---10-10---| 
E:------------------------------------------0-| 
 
Pre-Refrao 
G:--------| 
D:--------| 
A:--------| 
E:--5/--0-| 
 
Refrao 
G:----------------------------------------| 
D:--------------------------------------9-| 
A:------------5--7--8----------5--7--66---| 
E:--0-0-x-5-5----------0-0-x-5------------| 
 
Depois toque esse riff apenas uma vez 
G:---------------------| 
D:---------------------|  
A:--5------------------| 
E:----3--5--0---5/---0-| 
 
E toque este outro ate o fim da musica 
G:-------------------| 
D:-------------------| 
A:----------5--------|   Play for rest of song 
E:-0--0--3-----3-4-5-| 
	  

Search Paypal
auto scroll beats size up size down change color hide chords drawings
tab show chords e-chords YouTube Clip e-chords hide all tabs e-chords go to top tab