Nirvana

home > Nirvana

Territorial Pissings Bass Tab

Nirvana

Difficulty: ExpertExpert

by meta11eir0

tuner correct add songbook print version text version save to e-mail
chordsukulelecavacokeyboardtabbassdrummharmonicsflute Guitar Pro
chords

Territorial Pissings

Year: 1991 - Album: Nevermind

  		Nirvana 
Territorial Pissings 
 
Verso 1: 
G------------------------------------------------------- 
D------------------------------------------------------- 
A----------------8-8-8-8-8-8-8-8-5-5-5-5-5-5-5-5-5-5-5-5 
E-5-5-5-5-5-5-5-5--------------------------------------- x1 
 
Refrao 
G------------------------------------------------------------ 
D------------------------------------------------------------ 
A----------------8-8-8-8-8-8-8-8-5-5-5-5-5-5-5-5-5-5-6p6p--- 
E-5-5-5-5-5-5-5-5-------------------------------------------- 
 
Verso 2:  
G------------------------------------------------------- 
D------------------------------------------------------- 
A----------------8-8-8-8-8-8-8-8-5-5-5-5-5-5-5-5-5-5-5-5 
E-5-5-5-5-5-5-5-5--------------------------------------- x2 
 
Refrao 
G------------------------------------------------------------ 
D------------------------------------------------------------ 
A----------------8-8-8-8-8-8-8-8-5-5-5-5-5-5-5-5-5-5-6p6p--- 
E-5-5-5-5-5-5-5-5-------------------------------------------- 
 
Verso 3 
G------------------------------------------------------------ 
D------------------------------------------------------------ 
A------------------------------------------------------------ 
E-0-0-5-0-0-5-0-0-5-0-0-5-0-0-5-0-0-5-0-0-5-0-0-5-0-0-0-0-0-- 
 
Nesse refrao, a guitarra pará, deixando o baixo em evidencia 
G------------------------------------------------------- 
D------------------------------------------------------- 
A----------------8-8-8-8-8-8-8-8-5-5-5-5-5-5-5-5-5-5-5-5 
E-5-5-5-5-5-5-5-5--------------------------------------- x2 
 
Depois que a guitarra voltar novamente, toque isso... 
G------------------------------------------------------------ 
D------------------------------------------------------------ 
A----------------8-8-8-8-8-8-8-8-5-5-5-5-5-5-5-5-5-5-6p6p---- 
E-5-5-5-5-5-5-5-5------------------------------------------- 
Até o fim da musica. 
	  

Search Paypal
auto scroll beats size up size down change color hide chords drawings
tab show chords e-chords YouTube Clip e-chords hide all tabs e-chords go to top tab