Nirvana

home > Nirvana

Laminated Effect Bass Tab

Nirvana

Difficulty: nolevelnolevel

by meta11eir0

tuner correct add songbook print version text version save to e-mail
chordsukulelecavacokeyboardtabbassdrumsharmonicsflute Guitar Pro
chords

Laminated Effect

  		Nirvana 
Laminated Effect 
 
Intro 
g|---------------------- 
d|---------------------- 
a|---------------5-8-7-7 
e|-0-0-0-4-5-6-7-------- 
 
 Refrao 
g|----------------------------------------------- 
d|------------------------------------------------ 
a|-7-7-7-5-7---------------7-7-7-5-7--5-4-4/-2-2-2 
e|------------7-7-7-5-7--------------------------- 
 
Finalizacao 
g|------------------ 
d|------------------ 
a|---------------5-7 
e|-0-0-0-4-5-6-7---- 
 
Eu nao vou dar o numero de vezes pq como ť uma musica rara de uma versao para a outra pode variar. 
 

	  

Search Paypal
auto scroll beats size up size down change color hide chords drawings
tab show chords e-chords YouTube Clip e-chords hide all tabs e-chords go to top tab