Nirvana

Lake of Fire

Nirvana

bass

by  META11EIR0

save to print version add songbook text version e-mail correct tuner
chordsukulelecavacokeyboardtabbassdrumsharmonicaflute Guitar Pro
close

there isn't a video lesson for this song

chords

Lake of Fire

Year: 1994 - Album: Unplugged In New York

(Curt Kirkwood)

	  		Nirvana 
Lake of Fire 
 
 facil. Da pra dividir todos os riffs em 3 partes: 
 
Verso 
G:-------------------------------------------------- 
D:-------------------------------------------------- 
A:-4-4-4-0-0-0-4-4-4-3-3-3-4-4-4-0-0-0-2-2-4-4-4-4-4 
E:-------------------------------------------------- 
 
Refrao 
G:-------------------------------------------------------------------------- 
D:-------------------------------------------------------------------------- 
A:-----------0-------2-2-2-0------------0-2-2-2-----------------------------  
E:-2-2-2-0-0---2-2-2----------2-2-2-0-0--------0-0-2-2-2-2-0-0-2-2-2-2-0-0-2     
 
Durante o Solo 
G:-------------------------------------------------- 
D:-------------------------------------------------- 
A:-------------------------------------------------- 
E:-2-2-2-0-0-2-------------------------------------- 
 
A  so repetir os riffs. 

		  

auto scroll beats size up size down change color hide chords drawings
tab show chords e-chords YouTube Clip e-chords hide all tabs e-chords go to top tab

share