Nirvana

home > Nirvana

Clean Up Before She Comes Tab

Nirvana

Difficulty: ExpertExpert

by meta11eir0

tuner correct add songbook print version text version save to e-mail
chordsukulelecavacokeyboardtabbassdrumsharmonicsflute Guitar Pro
chords

Clean Up Before She Comes

Year: 2005 - Album: Sliver: The Best Of The Box

  		Nirvana 
Clean Up Before She Comes 
 
Verse 1 (Devagar e abafado) 
E---------------------------------------------------------------------------------------------------------------------------------- 
B---------------------------------------------------------------------------------------------------------------------------------- 
G---------------------------------------------------------------------------------------------------------------------------------- 
D---------------------------------------------------------------------------------------------------------------------------------- 
A---------------------------------------------------------------------------------------------------------------------------------- 
E-------X--X----X---X--X---X--X----X-----0--11--12---0--11--12---0--11--12---0--3--0--3--0---------------------- 
 
E---------------------------------------------------------------------------------------------------------------------------------- 
B---------------------------------------------------------------------------------------------------------------------------------- 
G---------------------------------------------------------------------------------------------------------------------------------- 
D---------------------------------------------------------------------------------------------------------------------------------- 
A---------------------------------------------------------------------------------------------------------------------------------- 
E----------0--11--12---0--11--12---0--11--12---0--11--12---0--11--12---0--3--0--3--0--------------------------------- 
 
 
refrao 
E---------------------------------------------------------------------------------------------------------------------------------- 
B---------------------------------------------------------------------------------------------------------------------------------- 
G---------------------------------------------------------------------------------------------------------------------------------- 
D--------5--X--5---5--5--5-->>--8--X--8---8--8--8---------11--12-------11--12--------11--12-----0--3--0--3--0---- 
A--------5--X--5---5--5--5-->>--8--X--8---8--8--8-----0--11--12----0--11--12----0--11--12-----0--3--0--3--0---- 
E---------5--X--5---5--5--5-->>--8--X--8---8--8--8-----0--11--12----0--11--12----0--11--12-----0--3--0--3--0---- 
 
E---------------------------------------------------------------------------------------------------------------------------------- 
B---------------------------------------------------------------------------------------------------------------------------------- 
G---------------------------------------------------------------------------------------------------------------------------------- 
D--------5--X--5---5--5--5-->>--8--X--8---8--8--8---------7--7--7--7---4---7--7--7--7-->>---10---------------------  
A--------5--X--5---5--5--5-->>--8--X--8---8--8--8---------7--7--7--7---4---7--7--7--7-->>---10--------------------- 
D--------5--X--5---5--5--5-->>--8--X--8---8--8--8---------7--7--7--7---4---7--7--7--7-->>---10--------------------- 
Riff do baixo: 
G------------------------------------------------------------------------------------------------------------------------------------- 
D------------------------------------------------------------------------------------------------------------------------------------- 
A---------------------4---4--4---4-->>--9---9--9--8--8--8---------------------------------------------------------------------- 
E-----------6---6--6-----------------------------------------------1---1--1-->>--4---4--4-->>--9---9--9--8--8--8------------ 
 
Riff 2 
G-------------------------------------------------------------------------------------------------------------------------------------- 
D-------------------------------------------------------------------------------------------------------------------------------------- 
A-------------------------3------------------------1-------------------------//------------------------------------------------------- 
E-------5---5--5---5--5-------3---3--3---3--3-----------1---1--1---1--1--2--1-------------------------------------------------- 
 

	  

Search Paypal
auto scroll beats size up size down change color hide chords drawings
tab show chords e-chords YouTube Clip e-chords hide all tabs e-chords go to top tab