Nirvana

home > Nirvana

All Apologies Tab

Nirvana

Difficulty: BeginnerBeginner

tuner correct add songbook print version text version save to e-mail
chordsukulelecavacokeyboardtabbassdrummharmonicsflute Guitar Pro
chords

All Apologies

Year: 1993 - Album: In Utero

(Kurt Cobain)

  		 
De antemão afinem o violão meio tom abaixo !   
  
 
            Riff1                    Riff2 
E|--------------------------|-------------------------| 
B|--------------------------|-----------------0-------| 
G|------0-----2-2--0--------|------0------7--7---5--4-| 
D|---4-----4------------4---|---4----4----------------| 
A|-5------------------------|-5----------5--5---------| 
E|--------------------------|-------------------------|             
           Riff3 
E|------------2-2-0-------------| 
B|------------------3-----------| 
G|------0-----------------------| 
D|---4-----4--------------------| 
A|-5----------5-5-5-5-----------| 
E|------------------------------| 
 
Introdução : Riff1 , riff2 , riff1 ,riff3 . 
 
A música se resume a esses riffs ! 
 
Aí eu vou escrever em cima da letra quais riffs você deve usar a cada momento da música! 
 
 riff1                riff2 
What else should I be, all apologies 
 riff1                riff3 
What else should I say, everyone is gay               ( A música as vezes é meia sem  
 riff1                riff2                             lógica do ponto de vista harmo- 
What else could I write, I don't have the right         nico pois as vezes o riff3 some 
 riff1                rif3                              e só fica o riff2 ) 
What else should I be, all apologies 
 
O refrão do erichs ( o cara que fez antes de mim ) tá certo ! 
 
Refrão: 
                                G5 
E|-------------------------------------------------------------| 
B|-------------------------------------------------------------| 
G|-------------------------------------------------------------| 
D|-5-5-5-5-5-5-5-5-5-5-5-5-5-5-5-5-5-5-5-5-5-5-5-5-5-5-5-5-5-5-| 
A|-5-5-5-5-5-5-5-5-5-5-5-5-5-5-5-5-5-5-5-5-5-5-5-5-5-5-5-5-5-5-| 
D|-5-5-5-5-5-5-5-5-5-5-5-5-5-5-5-5-5-5-5-5-5-5-5-5-5-5-5-5-5-5-| 
In the sun, in the sun I feel as one, in the sun, in the sun 
       A 
E|---------| 
B|---------| 
G|--2---2--| 
D|--2---2--| 
A|--0---0--| 
D|---------| 
I'm married, buried 
 
Aí entra o solo que é identico à introdução ! 
 
E abaixo é a mesma coisa trascrita acima riff1 , riff2(ou 3 )! 
 
I wish I was like you, easily amused 
Find my nest of salt, everything is my fault 
I'll take all the blame, aqua sea foam shame 
Sunburn with freeze burn, choking on the ashes of her enemy 

	  

Full key step upFull key step up
Half key step upHalf key step up
Half key step downHalf key step down
Full key step downFull key step down
Search Paypal
auto scroll beats size up size down change color hide chords drawings
tab show chords e-chords YouTube Clip e-chords hide all tabs e-chords go to top tab