Nirvana

home > Nirvana

Lounge Act Bass Tab

Nirvana

Difficulty: AdvancedAdvanced

by KURT+CONBAI

tuner correct add songbook print version text version save to e-mail
chordsukulelecavacokeyboardtabbassdrummharmonicsflute Guitar Pro
chords

Lounge Act

Year: 1991 - Album: Nevermind

  		Nirvana 
"Lounge Act" 
 
Intro & verses (main bass line)                                             
||------------|-------------|------------------------|-------------------------- 
||*-----0--4--|-------------|------------------0-----|-------------------------- 
||*-/2--------|-------------|------------0--2-----4--|-------------------------- 
||------------|--2--2--1--2/|--10--9--7--------------|--2--2--1--2/8--7--5--3--- 
 
Chorus                                                     
 
----||-----------||------------------------|--------------------|--------------- 
---*||-----------||*------------5h7--7--5--|--0--0--------------|--2--------2--- 
---*||-----------||*---------0-------------|--------------2--3--|--------2------ 
----||-----------||----0--0----------------|--------3--5--------|-----0--------- 
 
part right after the chorus               
 
---|-----2-----0--------||--------||----------------|--------------------------- 
---|--0-----0----------*||--------||*---------------|--------------------------- 
---|-------------------*||--------||*---0--0--0--0--|--------------------------- 
---|--------------0--3\-||--------||----------------|--4--4--4--3--3--3--3------ 
 
 
----||-------------------------------------------------------------------------- 
---*||-------------------------------------------------------------------------- 
---*||-------------------------------------------------------------------------- 
3---||-------------------------------------------------------------------------- 
	  

Search Paypal
auto scroll beats size up size down change color hide chords drawings
tab show chords e-chords YouTube Clip e-chords hide all tabs e-chords go to top tab