Nirvana

home > Nirvana

If You Must Bass Tab

Nirvana

Difficulty: nolevelnolevel

by meta11eir0

tuner correct add songbook print version text version save to e-mail
chordsukulelecavacokeyboardtabbassdrumsharmonicsflute Guitar Pro
chords

If You Must

Year: 2004 - Album: With The Lights Out

  		Nirvana 
If You Must 
 
É uma musica rara que foi gravada na época do bleach. 
 
Verso: 
G|-----------5-| 
D|---6-----5---| 
A|-----6-5-----| 
D|-6-----------| 
 
Pre Refrao:  
G|-----------| 
D|-----------| 
A|-----------| 
D|-0--000----| 
 
Refrao: 
G|----------| 
D|----------| 
A|----------| 
D|-6--6-0--0| 
 
Ponte: 
G|-------------------------| 
D|-------------------------| 
A|-------------------------| 
D|-3-3-3-3-3-3-0-0-0-0-0-0-| 
 
Depois da ponte toque isso (eu nao sei como chamar esse riff. Pre Verso??): 
G|-----------| 
D|-----------| 
A|-----------| 
D|-12-----7-6| 
 
 
ORDEM: 
Verso  
Pre Refrao 
Refrao  
Ponte 
Refrao   
Pre Verso  
Vreso   
Pre Refrao 
Refrao 

Eu nao vou dar o numero de vezes que vc tem que tocar cada riff por que dependendo da versao 
da musica que vc tem, isso pode variar. 
	  

Search Paypal
auto scroll beats size up size down change color hide chords drawings
tab show chords e-chords YouTube Clip e-chords hide all tabs e-chords go to top tab