Nirvana

Cut Me Some Slack Tab

Nirvana

Difficulty: ExpertExpert

by aman%5Fclaudino

tuner correct add songbook print version text version save to e-mail
chordsukulelecavacokeyboardtabbassdrumsharmonicsflute Guitar Pro
close

there isn't a video lesson for this song

request
chords

Cut Me Some Slack

  		
                                                
e|---------------------------------| 
B|---------------------------------| 
G|-7---------5--7--10--7--5--7-----| 
D|-7---------5--7--10--7--5--7---0-| 
A|-5---------3--5--8---5--3--5---0-| 
D|-----5h7-----------------------0-| 

e|--------------------------| 
B|--------------------------| 
G|-7--5--7--10--7--5--7-----| 
D|-7--5--7--10--7--5--7---0-| 
A|-5--3--5--8---5--3--5---0-| 
D|------------------------0-| 

   gt1 
e|-----------------------------------| 
B|-----------------------------------| 
G|-----------------------------------| 
D|----12--x-12--12-12-12-12-12-12-12-| 
A|-0--12--x-12--12-12-12-12-12-12-12-| 
D|-0--12--x-12--12-12-12-12-12-12-12-| 

   gt1                               x2 
e|-------------------------------------| 
B|-------------------------------------| 
G|-------------------------------------| 
D|------12--x-12--12-12-12-12-12-12-12-| 
A|-0-0--12--x-12--12-12-12-12-12-12-12-| 
D|-0-0--12--x-12--12-12-12-12-12-12-12-| 
   gt2 
e|-------------------------------------------------------------------------------------| 
B|-------------------------------------------------------------------------------------| 
G|-7--5/7-7-7--------------------------------------------------------------------------| 
D|-7--5/7-7-7------12--x-12--12-12-12-12-12-12-12-------12--x-12--12-12-12-12-12-12-12-| 
A|-5--3/5-5-5-0-0--12--x-12--12-12-12-12-12-12-12--0-0--12--x-12--12-12-12-12-12-12-12-| 
D|------------0-0--12--x-12--12-12-12-12-12-12-12--0-0--12--x-12--12-12-12-12-12-12-12-| 


  did your momma                                                 set me free 
e|-------------------------------------------------------------------------------------| 
B|-----------------------------------------10----10----10------------------------------| 
G|-----------------------------------------10----10----10------------------------------| 
D|------12--x-12--12-12-12-12-12-12-----12----12----12------12----------12----12----12-| 
A|-0-0--12--x-12--12-12-12-12-12-12-------------------------12----------12----12----12-| 
D|-0-0--12--x-12--12-12-12-12-12-12-12\---------------------12-------12----12----12-12-| 

e|--------------------------------| 
B|-----------------10----10----10-| 
G|-----------------10----10----10-| 
D|----------10/12-----12----12----| 
A|-------8------------------------| 
D|-10h12--------------------------| 

  oh momma                                                  let me be 
e|-------------------------------------------------------------------------------------| 
B|------------------------------------------7-5h7p5-------5b---------------------------| 
G|------------------------------------------7-5h7p5-------5b---------------------------| 
D|-0-0--12--x-12--12-12-12-12-12-12-12--0-----------7p5-----------------12----12----12-| 
A|-0-0--12--x-12--12-12-12-12-12-12-12--0---------------7---------------12----12----12-| 
D|-0-0--12--x-12--12-12-12-12-12-12-12--0----------------------------12----12----12-12-| 

e|-------------------------------------| 
B|-------------------------------------| 
G|-------------------------------------| 
D|-------------12----12----12--x-x-x-x-| 
A|-7h9p7-------12----12----12--x-x-x-x-| 
D|---------12----12----12--12--x-x-x-x-| 

   oh momma                                                    watch me run 
e|-------------------------------------------------------------------------------------| 
B|-----------------------------------------10----10----10------------------------------| 
G|-----------------------------------------10----10----10------------------------------| 
D|------12--x-12--12-12-12-12-12-12-----12----12----12------12----------12----12----12-| 
A|-0-0--12--x-12--12-12-12-12-12-12-------------------------12----------12----12----12-| 
D|-0-0--12--x-12--12-12-12-12-12-12-12\---------------------12-------12----12----12-12-| 

e|------------------------------------| 
B|------------------------------------| 
G|------------------------------------| 
D|-0-0-12--x-12--12-12-12-12-12-12-12-| 
A|-0-0-12--x-12--12-12-12-12-12-12-12-| 
D|-0-0-12--x-12--12-12-12-12-12-12-12-| 

   hey mother...                               i'm going to have some fun yeah 
e|--------------------------------------------------------------------------| 
B|--------------------------------------------------------------------------| 
G|--------------------------------------------------------------------------| 
D|------12--x-12--12-12-12-12-12-12-12-------12--x-12--12-12-12-12-12-12-12-| 
A|-0-0--12--x-12--12-12-12-12-12-12-12--0-0--12--x-12--12-12-12-12-12-12-12-| 
D|-0-0--12--x-12--12-12-12-12-12-12-12--0-0--12--x-12--12-12-12-12-12-12-12-| 

e|-------------------------------------| 
B|-------------------------------------| 
G|-------------------------------------| 
D|------12--x-12--12-12-12-12-12-12-12-| 
A|-0-0--12--x-12--12-12-12-12-12-12-12-| 
D|-0-0--12--x-12--12-12-12-12-12-12-12-| 


   kris bass line                       x2 
e|----------------------------------------| 
B|----------------------------------------| 
G|----------------------------------------| 
D|----------------------------------------| 
A|-0-0-0-0-0--0-0-0-0-0--0-0-0-0--0-0-0-0-| 
D|-4-4-4-4-4--5-5-5-5-5--7-5-7-7--7-5-7-7-| 
   paul 
e|------------------------------------------------------------------------------| 
B|-15-15-15-15-15-15--13/15-15-15-15-15-15-15-13/15-15-15-15-15-15--13/15-15-15-| 
G|-14-14-14-14-14-14--12/14-14-14-14-14-14-14-12/14-14-14-14-14-14--12/14-14-14-| 
D|------------------------------------------------------------------------------| 
A|------------------------------------------------------------------------------| 
E|------------------------------------------------------------------------------| 
   pat 
e|-------------------------------------------------| 
B|-------------------------------------------------| 
G|--7--7-7--7-7-7-7-7-7-7--7--7-7--7-7-7-7-7-7-7-7-| 
D|--7--7-7--7-7-7-7-7-7-7--7--7-7--7-7-7-7-7-7-7-7-| 
A|--5--5-5--5-5-5-5-5-5-5--5--5-5--5-5-5-5-5-5-5-5-| 
D|-------------------------------------------------| 

e|---| 
B|---| 
G|---| 
D|---| 
A|-0-| 
D|-0-| 

                            
e|----------------------------------| 
B|----------------------------------| 
G|----------------------------------| 
D|---12--x-12--12-12-12-12-12-12-12-| 
A|-0-12--x-12--12-12-12-12-12-12-12-| 
D|-0-12--x-12--12-12-12-12-12-12-12-| 

e|-------------------------------------| 
B|-------------------------------------| 
G|-------------------------------------| 
D|------12--x-12--12-12-12-12-12-12-12-| 
A|-0-0--12--x-12--12-12-12-12-12-12-12-| 
D|-0-0--12--x-12--12-12-12-12-12-12-12-| 


    hey momma...                                      dont let me down 
e|--------------------------------------------------------------------------| 
B|--------------------------------------------------------------------------| 
G|--------------------------------------------------------------------------| 
D|------12--x-12--12-12-12-12-12-12-12-------12--x-12--12-12-12-12-12-12-12-| 
A|-0-0--12--x-12--12-12-12-12-12-12-12--0-0--12--x-12--12-12-12-12-12-12-12-| 
D|-0-0--12--x-12--12-12-12-12-12-12-12--0-0--12--x-12--12-12-12-12-12-12-12-| 

e|-------------------------------------| 
B|-------------------------------------| 
G|-------------------------------------| 
D|------12--x-12--12-12-12-12-12-12-12-| 
A|-0-0--12--x-12--12-12-12-12-12-12-12-| 
D|-0-0--12--x-12--12-12-12-12-12-12-12-| 

   momma... 
e|--------------------------------------------------------------------------| 
B|--------------------------------------------------------------------------| 
G|--------------------------------------------------------------------------| 
D|------12--x-12--12-12-12-12-12-12-12-------12--x-12--12-12-12-12-12-12-12-| 
A|-0-0--12--x-12--12-12-12-12-12-12-12--0-0--12--x-12--12-12-12-12-12-12-12-| 
D|-0-0--12--x-12--12-12-12-12-12-12-12--0-0--12--x-12--12-12-12-12-12-12-12-| 

e|-------------------------------------| 
B|-------------------------------------| 
G|-------------------------------------| 
D|------12--x-12--12-12-12-12-12-12-12-| 
A|-0-0--12--x-12--12-12-12-12-12-12-12-| 
D|-0-0--12--x-12--12-12-12-12-12-12-12-| 

           if you want to... 
e|----------------------------------------------------------------| 
B|----------------------------------------------------------------| 
G|-2-2-2-2-2-2-2-2-2-2-2-2-2-2-2-2-2-2-2-2-2-2-2-2-2-2-2-2-2-2--7-| 
D|-2-2-2-2-2-2-2-2-2-2-2-2-2-2-2-2-2-2-2-2-2-2-2-2-2-2-2-2-2-2--7-| 
A|-0-0-0-0-0-0-0-0-0-0-0-0-0-0-0-0-0-0-0-0-0-0-0-0-0-0-0-0-0-0--5-| 
D|----------------------------------------------------------------| 

                          x2 
e|--------------------------| 
B|--------------------------| 
G|-7--5--7--10--7--5--7-----| 
D|-7--5--7--10--7--5--7---0-| 
A|-5--3--5--8---5--3--5---0-| 
D|------------------------0-| 

e|-------------------------------------------------------| 
B|-------------------------------------------------------| 
G|-----7--7-7--7-7-7-7-7-7-7-----7--7-7--7-7-7-7-7-7-7-7-| 
D|-----7--7-7--7-7-7-7-7-7-7-----7--7-7--7-7-7-7-7-7-7-7-| 
A|-0-0-5--5-5--5-5-5-5-5-5-5-0-0-5--5-5--5-5-5-5-5-5-5-5-| 
D|-0-0-----------------------0-0-------------------------| 

e|---------------------------| 
B|---------------------------| 
G|-----7--7-7--7-7-7-7-7-7-7-| 
D|-----7--7-7--7-7-7-7-7-7-7-| 
A|-0-0-5--5-5--5-5-5-5-5-5-5-| 
D|-0-0-----------------------| 

   kris                                 x4 
e|----------------------------------------| 
B|----------------------------------------| 
G|----------------------------------------| 
D|----------------------------------------| 
A|-0-0-0-0-0--0-0-0-0-0--0-0-0-0--0-0-0-0-| 
D|-4-4-4-4-4--5-5-5-5-5--7-5-7-7--7-5-7-7-| 
   paul 
e|------------------------------------------------------------------------------| 
B|-15-15-15-15-15-15--13/15-15-15-15-15-15-15-13/15-15-15-15-15-15--13/15-15-15-| 
G|-14-14-14-14-14-14--12/14-14-14-14-14-14-14-12/14-14-14-14-14-14--12/14-14-14-| 
D|------------------------------------------------------------------------------| 
A|------------------------------------------------------------------------------| 
D|------------------------------------------------------------------------------| 
   pat 
e|-------------------------------------------------------| 
B|-------------------------------------------------------| 
G|-----7--7-7--7-7-7-7-7-7-7-----7--7-7--7-7-7-7-7-7-7-7-| 
D|-----7--7-7--7-7-7-7-7-7-7-----7--7-7--7-7-7-7-7-7-7-7-| 
A|-0-0-5--5-5--5-5-5-5-5-5-5-0-0-5--5-5--5-5-5-5-5-5-5-5-| 
D|-0-0-----------------------0-0-------------------------| 

   gt1 
e|---------------------------------------------------------------------| 
B|---------------------------------------------------------------------| 
G|-7-------------------------9------------8--------------7-----------7-| 
D|-7-------------------------9------------8--------------7-----------7-| 
A|-5-------------------------7------------6--------------5-----------5-| 
D|---------------------------------------------------------------------| 
   gt2                                               x2 
e|----------------------------------------------------| 
B|----------------------------------------------------| 
G|-7-7-7-7-7-7--8-8-8-8-8-8--9-9-9-9-9-9--8-8-8-8-8-8-| 
D|-x-x-x-x-x-x--x-x-x-x-x-x--x-x-x-x-x-x--x-x-x-x-x-x-| 
A|-5-5-5-5-5-5--6-6-6-6-6-6--7-7-7-7-7-7--6-6-6-6-6-6-| 
D|----------------------------------------------------| 

           if you want to... 
e|-------------------------------------------------------------| 
B|-------------------------------------------------------------| 
G|-2-2-2-2-2-2-2-2-2-2-2-2-2-2-2-2-2-2-2-2-2-2-2-2-2-2-2-2-2-2-| 
D|-2-2-2-2-2-2-2-2-2-2-2-2-2-2-2-2-2-2-2-2-2-2-2-2-2-2-2-2-2-2-| 
A|-0-0-0-0-0-0-0-0-0-0-0-0-0-0-0-0-0-0-0-0-0-0-0-0-0-0-0-0-0-0-| 
D|-------------------------------------------------------------| 

                                                    x4 
e|----------------------------------------------------| 
B|----------------------------------------------------| 
G|-7-7-7-7-7-7--8-8-8-8-8-8--9-9-9-9-9-9--8-8-8-8-8-8-| 
D|-x-x-x-x-x-x--x-x-x-x-x-x--x-x-x-x-x-x--x-x-x-x-x-x-| 
A|-5-5-5-5-5-5--6-6-6-6-6-6--7-7-7-7-7-7--6-6-6-6-6-6-| 
D|-0-0-0-0-0-0--0-0-0-0-0-0--0-0-0-0-0-0--0-0-0-0-0-0-| 

                                                                            x3 
e|----------------------------------------------------------------------------| 
B|----------------------------------------------------------------------------| 
G|----------------------------------------------------------------------------| 
D|----------------------------------------------------------------------------| 
A|-12-12-12-12-12-12--13-13-13-13-13-13--14-14-14-14-14-14--13-13-13-13-13-13-| 
E|-12-12-12-12-12-12--13-13-13-13-13-13--14-14-14-14-14-14--13-13-13-13-13-13-| 

e|-----------------------------| 
B|-----------------------------| 
G|-----------------------------| 
D|-----------------------------| 
A|-----------------------------| 
E|-14h15p14-12h14p12-12h14p12\-| 

                                                    x4 
e|----------------------------------------------------| 
B|----------------------------------------------------| 
G|-7-7-7-7-7-7--8-8-8-8-8-8--9-9-9-9-9-9--8-8-8-8-8-8-| 
D|-x-x-x-x-x-x--x-x-x-x-x-x--x-x-x-x-x-x--x-x-x-x-x-x-| 
A|-5-5-5-5-5-5--6-6-6-6-6-6--7-7-7-7-7-7--6-6-6-6-6-6-| 
D|-0-0-0-0-0-0--0-0-0-0-0-0--0-0-0-0-0-0--0-0-0-0-0-0-| 

e|-19bf-----(19bf)\--------------| 
B|-------------------------------| 
G|-------------------------------| 
D|-------------------------------| 
A|-------------------------------| 
D|-------------------------------| 

e|------------------------------------------------------------| 
B|------------------------------------------------------------| 
G|-7----------------------------7-----------------------------| 
D|-7----------------------------7-----------------------------| 
A|-5----------------------------5-----------------------------| 
D|------------------------------------------------------------| 
 
	  

Search Paypal
auto scroll beats size up size down change color hide chords drawings
tab show chords e-chords YouTube Clip e-chords hide all tabs e-chords go to top tab

share with facebook