Nirvana

Blew

Nirvana

bass Beginner beginner

by  META11EIR0

save to print version add songbook text version e-mail correct tuner
chordsukulelecavacokeyboardtabbassdrumsharmonicaflute Guitar Pro
close

there isn't a video lesson for this song

chords

Blew

Year: 1989 - Album: Bleach

	  		Nirvana 
Blew 
 
Intro: (x4) 
G-------------| 
D-------------| 
A-------------| 
E-0-3-5-6-5-0-| 
 
Depois do primeiro verso: (espelhando a guitarra) 
G-------------------------| 
D-------------------------| 
A-------------------------| 
E-0-0-3-5-6-6-5-3-3-0-5-5-| 
 
Verso: 
G-----------------------|-------------| 
D-----------------------|-------------| 
A-----------------------|-------------| 
E-0-3-5-6-6-5-3-0-5-5-3-|-0-3-5-5-6-0-| x2 
 
Refrao 
G--------------------------| 
D--------------------------| 
A--------------------------| 
E-3-5--5-5-3--3-5--5-5-3-6-| 
 -"Is there another reason for your...." 
 
Durante o solo de guitarra: 
Parte 1 (x4) 
G-------------------------| 
D-------------------------| 
A-------------------------| 
E-0-0-3-5-6-6-5-3-3-0-5-5-| 
 
Parte 2  (x3) 
G-----------------------| 
D-----------------------| 
A-----------------------| 
E-0-0-3-5-6-6-7-7-5-8-8-| 
 
Parte 3 (x1) 
G---------------------------| 
D---------------------------| 
A---------------------------| 
E-0-0-3-5-6-6-5-3-3-0-0-0-0-| 
 
E no final: (x8) 
G-------------| 
D-------------| 
A-------------| 
E-0-3-5-6-6-0-| 
 

		  

auto scroll beats size up size down change color hide chords drawings
tab show chords e-chords YouTube Clip e-chords hide all tabs e-chords go to top tab

share