Nirvana

Heart-Shaped Box

Nirvana

tabs Beginner beginner

by  NOBU

save to print version add songbook text version e-mail correct tuner
chordsukulelecavacokeyboardtabbassdrumsharmonicaflute Guitar Pro
close
heart-shaped-box-by-nirvana

there is a video lesson for this song

chords

Heart-Shaped Box

	  		Afinação: D#(Meio Tom Abaixo) 

Intro/Versos: 

e|------------------------------------------|------------------------------------------| 
B|------------------------------------------|------------------------------------------| 
G|-----2------------------------------------|-----2------------------------------------| 
D|---2---2------3--------0---0--------------|---2---2------3-------2/4---4-----0-------| 
A|-0----------3---3----0---0---0------------|-0----------3---3---------0---3-3---------| 
E|----------3--------0----------------------|----------3-------0-----------------------|     

Repetir de acordo com a música   
---------------------------------------------------------------------------------------|  

tabchorus
Refrão e|------------------------------------------|| B|------------------------------------------|| G|-----4b-----4b---------------4b-----------|| D|-2-2---------------2/4---4----------------|| A|-0-0----3-3----0-------0---3--------------|| E|--------3-3----0--------------------------||
tab
-------------------------------------------------------------------------------------
hide this tabHide
tab
Solo e|------------------------------------------|------------------------------------------| B|-----8b------6b----5r--5-3-1-0------------|-----8b------6b----5r--5-3-2-1-0----------| G|------------------------------------------|----------------------------------2-------| D|-7-7-----5-5-----3------------------------|-7-7-----5-5-----3----------------2-------| A|------------------------------------------|----------------------------------0-------| E|------------------------------------------|------------------------------------------|
tab
/ = Slide b = Bend r = Bend Release Editado Luan Silva

Full key step upFull key step up
Half key step upHalf key step up
Half key step downHalf key step down
Full key step downFull key step down
auto scroll beats size up size down change color hide chords drawings
tab show chords e-chords YouTube Clip e-chords hide all tabs e-chords go to top tab

share