Nirvana

home > Nirvana

Seasons In The Sun Bass Tab

Nirvana

Difficulty: BeginnerBeginner

by markin+grunge

tuner correct add songbook print version text version save to e-mail
chordsukulelecavacokeyboardtabbassdrumsharmonicsflute Guitar Pro
chords

Seasons In The Sun

  		Essa é umas das mais raras do Nirvana, ela é muito boa, 
 só quem gosta de Nirvana é capaz de entender a essência 
 dessa música. A todos paz, amor e empatia. 
 
Verso: 
 
G ----------------------------------| 
D ----------------------------------| 
A 5-5------5-5-----5-7-7-----7-7----| 
E -----5-5-------5-------7-7-----7--| 
 
Coro: 
 
G -------------------------------------------------------------------------------------------------| 
D -------------------------------------------------------------------------------------------------| 
A - 5-5-5-5-5-5-5-5-7-7-7-7-7-7-7-7-------------------------------5-5-5-5-5-5-5-5--| 
E -----------------------------------5-7-5-5-5-5-5-5-5-5-5-5-5-7----------------------| 
 
G ------------------------------| 
D ----------------------------5-| 
A 5-5-5-5-7-7-7-7-5-5-5-5-5-5---| 
E ------------------------------| 
 
(2:42) 
 
G ----------------------------------------------------------------------------| 
D ----------------------------------------------------------------------------| 
A  -6-6-6-6-6-6-6-6-8-8-8-8-8-8-8-8---------------------------6-6-6-6-6-6-6-6-| 
E  ---------------------------------6-8-6-6-6-6-6-6-6-6-6-6-8-----------------| 

	  

Full key step upFull key step up
Half key step upHalf key step up
Half key step downHalf key step down
Full key step downFull key step down
Search Paypal
auto scroll beats size up size down change color hide chords drawings
tab show chords e-chords YouTube Clip e-chords hide all tabs e-chords go to top tab