Nirvana

Big Long Now Bass Tab

Nirvana

Difficulty: nolevelnolevel

by meta11eir0

tuner correct add songbook print version text version save to e-mail
chordsukuleleukulelecavacokeyboardtabbassdrummharmonicsflute Guitar Pro
close

there isn't a video lesson for this song

request
chords

Big Long Now

Year: 1992 - Album: Incesticide

  		Nirvana 
Big Long Now 
 
Intro/Verso 
G----------------------------| 
D----------------------------| 
A-------4-------------5------| 
E-6-6------6----6-6------6---| 
 
Refrao 
G------------------------| 
D------------------------| 
A------------------------| 
E-7-7-7-6-6-6-5-5-4--3---| 
 
Ponte 
G------------------------| 
D------------------------| 
A--------4h5-5-5-5-5-5---| 
E-6-6-6------------------| 
 
Ou voce pode fazer o ponte assim tambem: 
G-----------------------------------| 
D-----------------------------------| 
A--------4h5-5-5-5-5-5-6-6-6-6-6----| 
E-6-6-6-----------------------------| 
 

	  

Search Paypal
auto scroll beats size up size down change color hide chords drawings
tab show chords e-chords YouTube Clip e-chords hide all tabs e-chords go to top tab

share with facebook