Nirvana

home > Nirvana

Oh The Guilt Tab

Nirvana

Difficulty: EasyEasy

by weezer+pillows

tuner correct add songbook print version text version save to e-mail
chordsukulelecavacokeyboardtabbassdrummharmonicsflute Guitar Pro
chords

Oh The Guilt

  		STANDARD TUNING 

/ = slide 

Intro 
|-----------------| 
|-----------------| 
|--2-2-2-/-5-5-5--| 
|--2-2-2-/-6-6-6--|x4 
|--0-0-0-/-6-6-6--| 
|-----------------| 

Verse 
|---------|   |-----------------| 
|---------|   |-----------------| 
|--2-2-2--|   |--2-2-2-/-5-5-5--| 
|--2-2-2--|x3 |--2-2-2-/-6-6-6--| 
|--0-0-0--|   |--0-0-0-/-6-6-6--| 
|---------|   |-----------------| 

Chorus 
|----------------------------------| 
|----------------------------------| 
|--2-2---------5--5-5-5------------| 
|--2-2--5-4-4--5--5-5-5--2-2-------| 
|--0-0--5-4-4--3--3-3-3--2-2-------| 
|-------3-2-2------------0-0-2-3---| 

|----------------------------------| 
|----------------------------------| 
|--2-2---------5--5-5-5-/-7-7-7-7--| 
|--2-2--5-4-4--5--5-5-5-/-7-7-7-7--| 
|--0-0--5-4-4--3--3-3-3-/-5-5-5-5--| 
|-------3-2-2----------------------| 

	  

Search Paypal
auto scroll beats size up size down change color hide chords drawings
tab show chords e-chords YouTube Clip e-chords hide all tabs e-chords go to top tab