Nirvana

home > Nirvana

Negative Creep Bass Tab

Nirvana

Difficulty: nolevelnolevel

by meta11eir0

tuner correct add songbook print version text version save to e-mail
chordsukulelecavacokeyboardtabbassdrummharmonicsflute Guitar Pro
chords

Negative Creep

Year: 1989 - Album: Bleach

  		Nirvana 
Negative Creep 
 
 
Versos: 
G------------------------------------------- 
D------------------------------------------ 
A------------------------------------------ 
D12-12-12-12-12-12-12-12-12\0 
 
G---------------------------- 
D---------------------------- 
A---------------------------- 
D0-0-0-0-0-0-0-0/12-- 
 
Refrao: 
G----------------- 
D----------------- 
A77p5-------5-8888 
D----7-777-67----- 
 
Ponte: 
G----------------------------------------------- 
D------------------------1/2-----------------1/2 
A-----------------------17^17---------------17^17 
D16-16-16-16-16-16-16-16-----5-5-5-5-5-5-5-5----- 
 

	  

Search Paypal
auto scroll beats size up size down change color hide chords drawings
tab show chords e-chords YouTube Clip e-chords hide all tabs e-chords go to top tab