Nirvana

home > Nirvana

Where Did You Sleep Last Night Bass Tab

Nirvana

Difficulty: ExpertExpert

by meta11eir0

tuner correct add songbook print version text version save to e-mail
chordsukulelecavacokeyboardtabbassdrumsharmonicsflute Guitar Pro
chords

Where Did You Sleep Last Night

Year: 1994 - Album: Nirvana

  		Nirvana 
Where Did You Sleep Last Night 
Afinacao: (Eb-Ab-Db-Gb) 
 
Nota--> Nessa musica, o baixo s toca no refrao e na ponte 
 
Primeiro refrao 
Gb|-----------------|-----------------|-----------------|-----------------| 
Db|---------3-----3-|-----------------|-3-----3-3-------|-----------------| 
Ab|-----------------|-0-----0---------|-----------3-3-2-|-----------------| 
Eb|-0-----0---------|---------3-----3-|-----------------|-0-----0-0-----0-| 
 
Ponte (toque so uma vez) 
Gb|-----------------|-----------------|-----------------| 
Db|---------3-----3-|-----------------|---------3-------| 
Ab|-----------------|-0-----0---------|-----------------| 
Eb|-0-----0---------|---------3-----3-|-----------------| 
Depois toque isso duas vezes 
Gb|-----------------| 
Db|-----------------| 
Ab|-----------------| 
Eb|-0-----0-0-----0-| 
 
Outro (toque so uma vez) 
Gb|-----------------| 
Db|-3---------------| 
Ab|-----------------| 
Eb|-----------------| 
 
Essa musica foi gravada originalmete pelo Leadbelly e o Nirvana fez cover dela no 
acuntico Mtv. Por isso a versao trascrita aqui  acustica. 
	  

Search Paypal
auto scroll beats size up size down change color hide chords drawings
tab show chords e-chords YouTube Clip e-chords hide all tabs e-chords go to top tab