Nirvana

home > Nirvana

Endless, Nameless Tab

Nirvana

Difficulty: AdvancedAdvanced

by meta11eir0

tuner correct add songbook print version text version save to e-mail
chordsukulelecavacokeyboardtabbassdrumsharmonicsflute Guitar Pro
chords

Endless, Nameless

Year: 1996 - Album: Singles

  		NIRVANA 
-Endless, Nameless 
 
INTRO  
|-----------------|  
|-----------------|  
|-0-0-0-0-0-0-0-0-|   play this figure  
|-0-0-0-0-0-0-0-0-|          4x  
|-0-0-0-0-0-0-0-0-|  
|-0-0-0-0-0-0-0-0-|  
abafado-----------|  
                              1/4  
                                )  
|-------------|-------------|-14)~~~~~|-14---------------|  
|-------------|-------------|-14------|-14---------------|  
|-----0-0-0-0-|-----0-0-0-0-|---------|----0-0-0-0-0-0-0-|  
|-x/x-0-0-0-0-|-x/x-0-0-0-0-|---------|----0-0-0-0-0-0-0-|  
|-----0-0-0-0-|-----0-0-0-0-|---------|----0-0-0-0-0-0-0-|  
|-----0-0-0-0-|-----0-0-0-0-|---------|----0-0-0-0-0-0-0-|  
|-------------|-------------|---------|------------------|  ABAFADO 
 
   3/4                          1/4  
    )                            )  
|-13)~~~~~|-13---------------|-15)~~~~~|-15---------------|  
|-13------|-13---------------|-15------|-15---------------|  
|---------|----0-0-0-0-0-0-0-|---------|----0-0-0-0-0-0-0-|  
|---------|----0-0-0-0-0-0-0-|---------|----0-0-0-0-0-0-0-|  
|---------|----0-0-0-0-0-0-0-|---------|----0-0-0-0-0-0-0-|  
|---------|----0-0-0-0-0-0-0-|---------|----0-0-0-0-0-0-0-|  
|---------|------------------|---------|------------------|  ABAFADO 
   1/4  
    )  
|-16)~~~~~|~~~~~|  
|-16------|-----|  
|---------|-----|  
|---------|-----|  
|---------|-----|  
|---------|-----|  
 
VERSO 2:  
           1/2           1/2           1/2           1/2  
            )             )             )             )  
|---------14)-|---------12)-|---------12)-|---------15)-|  
|---------14--|---------12--|---------12--|---------15--|  
|-0-0-0-0-----|-0-0-0-0-----|-0-0-0-0-----|-0-0-0-0-----|  
|-0-0-0-0-----|-0-0-0-0-----|-0-0-0-0-----|-0-0-0-0-----|  
|-0-0-0-0-----|-0-0-0-0-----|-0-0-0-0-----|-0-0-0-0-----|  
|-0-0-0-0-----|-0-0-0-0-----|-0-0-0-0-----|-0-0-0-0-----|  
          1/2           1/2            1/2          1/2  
            )             )             )             )  
|---------13)-|---------11)-|---------14)-|---------14)-|  
|---------13--|---------11--|---------14--|---------14--|  
|-0-0-0-0-----|-0-0-0-0-----|-0-0-0-0-----|-0-0-0-0-----|  
|-0-0-0-0-----|-0-0-0-0-----|-0-0-0-0-----|-0-0-0-0-----|  
|-0-0-0-0-----|-0-0-0-0-----|-0-0-0-0-----|-0-0-0-0-----|  
|-0-0-0-0-----|-0-0-0-0-----|-0-0-0-0-----|-0-0-0-0-----|  
 
Refro: 
|------------|------------|-----------|------------|  
|------------|------------|-----------|------------|  
|------------|------------|---5-------|------------|  
|----5---5---|----4---4---|-------5---|----4---4---|  
|-3----3---3-|-2----2---2-|-3---3---5-|-2----2---2-|  
|------------|------------|-----------|------------| 
 
 

	  

Search Paypal
auto scroll beats size up size down change color hide chords drawings
tab show chords e-chords YouTube Clip e-chords hide all tabs e-chords go to top tab